  0
SECTION
  2
HEADER
  9
$ACADVER
  1
AC1015
  9
$ACADMAINTVER
 70
     6
  9
$DWGCODEPAGE
  3
ANSI_1254
  9
$INSBASE
 10
0.0
 20
0.0
 30
0.0
  9
$EXTMIN
 10
0.0
 20
0.0
 30
0.0
  9
$EXTMAX
 10
279.4
 20
215.9
 30
0.0
  9
$LIMMIN
 10
0.0
 20
0.0
  9
$LIMMAX
 10
279.4
 20
215.9
  9
$ORTHOMODE
 70
     0
  9
$REGENMODE
 70
     1
  9
$FILLMODE
 70
     1
  9
$QTEXTMODE
 70
     0
  9
$MIRRTEXT
 70
     1
  9
$LTSCALE
 40
1.0
  9
$ATTMODE
 70
     1
  9
$TEXTSIZE
 40
3.5
  9
$TRACEWID
 40
1.0
  9
$TEXTSTYLE
  7
Standard
  9
$CLAYER
  8
0
  9
$CELTYPE
  6
ByLayer
  9
$CECOLOR
 62
   256
  9
$CELTSCALE
 40
1.0
  9
$DISPSILH
 70
     0
  9
$DIMSCALE
 40
1.0
  9
$DIMASZ
 40
3.5
  9
$DIMEXO
 40
1.0
  9
$DIMDLI
 40
3.75
  9
$DIMRND
 40
0.0
  9
$DIMDLE
 40
0.0
  9
$DIMEXE
 40
1.0
  9
$DIMTP
 40
0.0
  9
$DIMTM
 40
0.0
  9
$DIMTXT
 40
3.5
  9
$DIMCEN
 40
2.5
  9
$DIMTSZ
 40
0.0
  9
$DIMTOL
 70
     0
  9
$DIMLIM
 70
     0
  9
$DIMTIH
 70
     1
  9
$DIMTOH
 70
     1
  9
$DIMSE1
 70
     0
  9
$DIMSE2
 70
     0
  9
$DIMTAD
 70
     1
  9
$DIMZIN
 70
     0
  9
$DIMBLK
  1

  9
$DIMASO
 70
     1
  9
$DIMSHO
 70
     1
  9
$DIMPOST
  1

  9
$DIMAPOST
  1

  9
$DIMALT
 70
     0
  9
$DIMALTD
 70
     3
  9
$DIMALTF
 40
0.0393700787
  9
$DIMLFAC
 40
1.0
  9
$DIMTOFL
 70
     1
  9
$DIMTVP
 40
0.0
  9
$DIMTIX
 70
     0
  9
$DIMSOXD
 70
     0
  9
$DIMSAH
 70
     0
  9
$DIMBLK1
  1

  9
$DIMBLK2
  1

  9
$DIMSTYLE
  2
ISO-25
  9
$DIMCLRD
 70
     0
  9
$DIMCLRE
 70
     0
  9
$DIMCLRT
 70
     0
  9
$DIMTFAC
 40
1.0
  9
$DIMGAP
 40
1.524
  9
$DIMJUST
 70
     0
  9
$DIMSD1
 70
     0
  9
$DIMSD2
 70
     0
  9
$DIMTOLJ
 70
     0
  9
$DIMTZIN
 70
     0
  9
$DIMALTZ
 70
     0
  9
$DIMALTTZ
 70
     0
  9
$DIMUPT
 70
     0
  9
$DIMDEC
 70
     2
  9
$DIMTDEC
 70
     2
  9
$DIMALTU
 70
     2
  9
$DIMALTTD
 70
     3
  9
$DIMTXSTY
  7
Standard
  9
$DIMAUNIT
 70
     0
  9
$DIMADEC
 70
     2
  9
$DIMALTRND
 40
0.0
  9
$DIMAZIN
 70
     0
  9
$DIMDSEP
 70
    44
  9
$DIMATFIT
 70
     3
  9
$DIMFRAC
 70
     0
  9
$DIMLDRBLK
  1

  9
$DIMLUNIT
 70
     2
  9
$DIMLWD
 70
    -2
  9
$DIMLWE
 70
    -2
  9
$DIMTMOVE
 70
     0
  9
$LUNITS
 70
     2
  9
$LUPREC
 70
     2
  9
$SKETCHINC
 40
1.0
  9
$FILLETRAD
 40
10.0
  9
$AUNITS
 70
     0
  9
$AUPREC
 70
     2
  9
$MENU
  1
.
  9
$ELEVATION
 40
0.0
  9
$PELEVATION
 40
0.0
  9
$THICKNESS
 40
0.0
  9
$LIMCHECK
 70
     0
  9
$CHAMFERA
 40
0.0
  9
$CHAMFERB
 40
0.0
  9
$CHAMFERC
 40
0.0
  9
$CHAMFERD
 40
0.0
  9
$SKPOLY
 70
     0
  9
$TDCREATE
 40
2459935.699470058
  9
$TDUCREATE
 40
2459935.574470058
  9
$TDUPDATE
 40
2459935.699470231
  9
$TDUUPDATE
 40
2459935.574470231
  9
$TDINDWG
 40
0.0000000116
  9
$TDUSRTIMER
 40
0.0000000116
  9
$USRTIMER
 70
     1
  9
$ANGBASE
 50
0.0
  9
$ANGDIR
 70
     0
  9
$PDMODE
 70
     0
  9
$PDSIZE
 40
-1.0
  9
$PLINEWID
 40
0.0
  9
$SPLFRAME
 70
     0
  9
$SPLINETYPE
 70
     6
  9
$SPLINESEGS
 70
     8
  9
$HANDSEED
  5
ED
  9
$SURFTAB1
 70
     6
  9
$SURFTAB2
 70
     6
  9
$SURFTYPE
 70
     6
  9
$SURFU
 70
     6
  9
$SURFV
 70
     6
  9
$UCSBASE
  2

  9
$UCSNAME
  2

  9
$UCSORG
 10
0.0
 20
0.0
 30
0.0
  9
$UCSXDIR
 10
1.0
 20
0.0
 30
0.0
  9
$UCSYDIR
 10
0.0
 20
1.0
 30
0.0
  9
$UCSORTHOREF
  2

  9
$UCSORTHOVIEW
 70
     0
  9
$UCSORGTOP
 10
0.0
 20
0.0
 30
0.0
  9
$UCSORGBOTTOM
 10
0.0
 20
0.0
 30
0.0
  9
$UCSORGLEFT
 10
0.0
 20
0.0
 30
0.0
  9
$UCSORGRIGHT
 10
0.0
 20
0.0
 30
0.0
  9
$UCSORGFRONT
 10
0.0
 20
0.0
 30
0.0
  9
$UCSORGBACK
 10
0.0
 20
0.0
 30
0.0
  9
$PUCSBASE
  2

  9
$PUCSNAME
  2

  9
$PUCSORG
 10
0.0
 20
0.0
 30
0.0
  9
$PUCSXDIR
 10
1.0
 20
0.0
 30
0.0
  9
$PUCSYDIR
 10
0.0
 20
1.0
 30
0.0
  9
$PUCSORTHOREF
  2

  9
$PUCSORTHOVIEW
 70
     0
  9
$PUCSORGTOP
 10
0.0
 20
0.0
 30
0.0
  9
$PUCSORGBOTTOM
 10
0.0
 20
0.0
 30
0.0
  9
$PUCSORGLEFT
 10
0.0
 20
0.0
 30
0.0
  9
$PUCSORGRIGHT
 10
0.0
 20
0.0
 30
0.0
  9
$PUCSORGFRONT
 10
0.0
 20
0.0
 30
0.0
  9
$PUCSORGBACK
 10
0.0
 20
0.0
 30
0.0
  9
$USERI1
 70
     0
  9
$USERI2
 70
     0
  9
$USERI3
 70
     0
  9
$USERI4
 70
     0
  9
$USERI5
 70
     0
  9
$USERR1
 40
0.0
  9
$USERR2
 40
0.0
  9
$USERR3
 40
0.0
  9
$USERR4
 40
0.0
  9
$USERR5
 40
0.0
  9
$WORLDVIEW
 70
     1
  9
$SHADEDGE
 70
     3
  9
$SHADEDIF
 70
    70
  9
$TILEMODE
 70
     1
  9
$MAXACTVP
 70
    64
  9
$PINSBASE
 10
0.0
 20
0.0
 30
0.0
  9
$PLIMCHECK
 70
     0
  9
$PEXTMIN
 10
1.0000000000E+20
 20
1.0000000000E+20
 30
1.0000000000E+20
  9
$PEXTMAX
 10
-1.0000000000E+20
 20
-1.0000000000E+20
 30
-1.0000000000E+20
  9
$PLIMMIN
 10
0.0
 20
0.0
  9
$PLIMMAX
 10
420.0
 20
297.0
  9
$UNITMODE
 70
     0
  9
$VISRETAIN
 70
     1
  9
$PLINEGEN
 70
     0
  9
$PSLTSCALE
 70
     1
  9
$TREEDEPTH
 70
  3020
  9
$CMLSTYLE
  2
Standard
  9
$CMLJUST
 70
     0
  9
$CMLSCALE
 40
20.0
  9
$PROXYGRAPHICS
 70
     1
  9
$MEASUREMENT
 70
     1
  9
$CELWEIGHT
370
    -1
  9
$ENDCAPS
280
     0
  9
$JOINSTYLE
280
     0
  9
$LWDISPLAY
290
     1
  9
$INSUNITS
 70
     4
  9
$HYPERLINKBASE
  1

  9
$STYLESHEET
  1

  9
$XEDIT
290
     1
  9
$CEPSNTYPE
380
     0
  9
$PSTYLEMODE
290
     1
  9
$FINGERPRINTGUID
  2
{076abc16-3ef4-4b6a-aad8-9b22fc605fc9}
  9
$VERSIONGUID
  2
{FAEB1C32-E019-11D5-929B-00C0DF256EC4}
  9
$EXTNAMES
290
     1
  9
$PSVPSCALE
 40
0.0
  9
$OLESTARTUP
290
     0
  0
ENDSEC
  0
SECTION
  2
CLASSES
  0
CLASS
  1
ACDBDICTIONARYWDFLT
  2
AcDbDictionaryWithDefault
  3
ObjectDBX Classes
 90
        0
280
     0
281
     0
  0
CLASS
  1
VISUALSTYLE
  2
AcDbVisualStyle
  3
ObjectDBX Classes
 90
     4095
280
     0
281
     0
  0
CLASS
  1
MATERIAL
  2
AcDbMaterial
  3
ObjectDBX Classes
 90
     1153
280
     0
281
     0
  0
CLASS
  1
SCALE
  2
AcDbScale
  3
ObjectDBX Classes
 90
     1153
280
     0
281
     0
  0
CLASS
  1
TABLESTYLE
  2
AcDbTableStyle
  3
ObjectDBX Classes
 90
     4095
280
     0
281
     0
  0
CLASS
  1
MLEADERSTYLE
  2
AcDbMLeaderStyle
  3
ACDB_MLEADERSTYLE_CLASS
 90
     4095
280
     0
281
     0
  0
CLASS
  1
SUN
  2
AcDbSun
  3
SCENEOE
 90
     1153
280
     0
281
     0
  0
CLASS
  1
ACDBPLACEHOLDER
  2
AcDbPlaceHolder
  3
ObjectDBX Classes
 90
        0
280
     0
281
     0
  0
CLASS
  1
LAYOUT
  2
AcDbLayout
  3
ObjectDBX Classes
 90
        0
280
     0
281
     0
  0
ENDSEC
  0
SECTION
  2
TABLES
  0
TABLE
  2
VPORT
  5
8
330
0
100
AcDbSymbolTable
 70
     1
  0
VPORT
  5
29
330
8
100
AcDbSymbolTableRecord
100
AcDbViewportTableRecord
  2
*Active
 70
     0
 10
0.0
 20
0.0
 11
1.0
 21
1.0
 12
139.7
 22
107.95
 13
0.0
 23
0.0
 14
10.0
 24
10.0
 15
10.0
 25
10.0
 16
0.0
 26
0.0
 36
1.0
 17
0.0
 27
0.0
 37
0.0
 40
215.9
 41
1.2941176471
 42
50.0
 43
0.0
 44
0.0
 50
0.0
 51
0.0
 71
     0
 72
  2000
 73
     1
 74
     3
 75
     0
 76
     0
 77
     0
 78
     0
281
     0
 65
     1
110
0.0
120
0.0
130
0.0
111
1.0
121
0.0
131
0.0
112
0.0
122
1.0
132
0.0
 79
     0
146
0.0
  0
ENDTAB
  0
TABLE
  2
LTYPE
  5
5
330
0
100
AcDbSymbolTable
 70
     6
  0
LTYPE
  5
14
330
5
100
AcDbSymbolTableRecord
100
AcDbLinetypeTableRecord
  2
ByBlock
 70
     0
  3

 72
    65
 73
     0
 40
0.0
  0
LTYPE
  5
15
330
5
100
AcDbSymbolTableRecord
100
AcDbLinetypeTableRecord
  2
ByLayer
 70
     0
  3

 72
    65
 73
     0
 40
0.0
  0
LTYPE
  5
16
330
5
100
AcDbSymbolTableRecord
100
AcDbLinetypeTableRecord
  2
Continuous
 70
     0
  3
Solid line
 72
    65
 73
     0
 40
0.0
  0
LTYPE
  5
6E
330
5
100
AcDbSymbolTableRecord
100
AcDbLinetypeTableRecord
  2
HIDDEN
 70
     0
  3
Hidden __ __ __ __ __ __ __ __ __ __ __ __ __ __
 72
    65
 73
     2
 40
1.905
 49
1.27
 74
     0
 49
-0.635
 74
     0
  0
LTYPE
  5
6F
330
5
100
AcDbSymbolTableRecord
100
AcDbLinetypeTableRecord
  2
PHANTOM
 70
     0
  3
Phantom ______  __  __  ______  __  __  ______
 72
    65
 73
     6
 40
12.7
 49
6.35
 74
     0
 49
-1.27
 74
     0
 49
1.27
 74
     0
 49
-1.27
 74
     0
 49
1.27
 74
     0
 49
-1.27
 74
     0
  0
LTYPE
  5
70
330
5
100
AcDbSymbolTableRecord
100
AcDbLinetypeTableRecord
  2
CENTER
 70
     0
  3
Center ____ _ ____ _ ____ _ ____ _ ____ _ ____
 72
    65
 73
     4
 40
10.16
 49
6.35
 74
     0
 49
-1.27
 74
     0
 49
1.27
 74
     0
 49
-1.27
 74
     0
  0
LTYPE
  5
71
330
5
100
AcDbSymbolTableRecord
100
AcDbLinetypeTableRecord
  2
CENTERX2
 70
     0
  3
Center (2x) ________  __  ________  __  _____
 72
    65
 73
     4
 40
20.32
 49
12.7
 74
     0
 49
-2.54
 74
     0
 49
2.54
 74
     0
 49
-2.54
 74
     0
  0
LTYPE
  5
72
330
5
100
AcDbSymbolTableRecord
100
AcDbLinetypeTableRecord
  2
DOT2
 70
     0
  3
Dot (.5x) ........................................
 72
    65
 73
     2
 40
0.635
 49
0.0
 74
     0
 49
-0.635
 74
     0
  0
ENDTAB
  0
TABLE
  2
LAYER
  5
2
330
0
100
AcDbSymbolTable
 70
    17
  0
LAYER
  5
10
330
2
100
AcDbSymbolTableRecord
100
AcDbLayerTableRecord
  2
0
 70
     0
 62
     7
  6
Continuous
370
    -3
390
F
  0
LAYER
  5
73
330
2
100
AcDbSymbolTableRecord
100
AcDbLayerTableRecord
  2
FORMAT
 70
     0
 62
     7
  6
Continuous
370
    -3
390
F
  0
LAYER
  5
74
330
2
100
AcDbSymbolTableRecord
100
AcDbLayerTableRecord
  2
YARDIMCI_GEOMETRI
 70
     0
 62
    -6
  6
Continuous
290
     0
370
    -3
390
F
  0
LAYER
  5
75
330
2
100
AcDbSymbolTableRecord
100
AcDbLayerTableRecord
  2
SAYFA_CERCEVESI
 70
     0
 62
     7
  6
Continuous
370
    25
390
F
  0
LAYER
  5
76
330
2
100
AcDbSymbolTableRecord
100
AcDbLayerTableRecord
  2
ANTET
 70
     0
 62
     7
  6
Continuous
370
    -3
390
F
  0
LAYER
  5
77
330
2
100
AcDbSymbolTableRecord
100
AcDbLayerTableRecord
  2
OLCU
 70
     0
 62
   150
  6
Continuous
370
    -3
390
F
  0
LAYER
  5
78
330
2
100
AcDbSymbolTableRecord
100
AcDbLayerTableRecord
  2
METIN
 70
     0
 62
    96
  6
Continuous
370
    -3
390
F
  0
LAYER
  5
79
330
2
100
AcDbSymbolTableRecord
100
AcDbLayerTableRecord
  2
BALON
 70
     0
 62
     5
  6
Continuous
370
    -3
390
F
  0
LAYER
  5
7A
330
2
100
AcDbSymbolTableRecord
100
AcDbLayerTableRecord
  2
VURGU
 70
     0
 62
     7
  6
Continuous
370
    -3
390
F
  0
LAYER
  5
7B
330
2
100
AcDbSymbolTableRecord
100
AcDbLayerTableRecord
  2
SILIK
 70
     0
 62
     7
  6
Continuous
370
    -3
390
F
  0
LAYER
  5
7C
330
2
100
AcDbSymbolTableRecord
100
AcDbLayerTableRecord
  2
MODEL
 70
     0
 62
     7
  6
Continuous
370
    -3
390
F
  0
LAYER
  5
7D
330
2
100
AcDbSymbolTableRecord
100
AcDbLayerTableRecord
  2
DETAYLANDıRMA
 70
     0
 62
   190
  6
Continuous
370
    -3
390
F
  0
LAYER
  5
7E
330
2
100
AcDbSymbolTableRecord
100
AcDbLayerTableRecord
  2
TOLERANS
 70
     0
 62
   230
  6
Continuous
370
    -3
390
F
  0
LAYER
  5
7F
330
2
100
AcDbSymbolTableRecord
100
AcDbLayerTableRecord
  2
MERKEZ_CIZGILERI
 70
     0
 62
    30
  6
Continuous
370
    -3
390
F
  0
LAYER
  5
80
330
2
100
AcDbSymbolTableRecord
100
AcDbLayerTableRecord
  2
KESIT-DETAY_CIZGILERI
 70
     0
 62
     7
  6
Continuous
370
    -3
390
F
  0
LAYER
  5
81
330
2
100
AcDbSymbolTableRecord
100
AcDbLayerTableRecord
  2
\U+041E\U+0421\U+0415\U+0412\U+042B\U+0415
 70
     0
 62
     7
  6
Continuous
370
    -3
390
F
  0
LAYER
  5
82
330
2
100
AcDbSymbolTableRecord
100
AcDbLayerTableRecord
  2
\U+0412\U+041E\U+0414\U+042F\U+041D\U+042B\U+0415_\U+0417\U+041D\U+0410\U+041A\U+0418
 70
     0
 62
    11
  6
Continuous
370
    -3
390
F
  0
ENDTAB
  0
TABLE
  2
STYLE
  5
3
330
0
100
AcDbSymbolTable
 70
     1
  0
STYLE
  5
11
330
3
100
AcDbSymbolTableRecord
100
AcDbTextStyleTableRecord
  2
Standard
 70
     0
 40
0.0
 41
1.0
 50
0.0
 71
     0
 42
3.5
  3
txt
  4

  0
ENDTAB
  0
TABLE
  2
VIEW
  5
6
330
0
100
AcDbSymbolTable
 70
     0
  0
ENDTAB
  0
TABLE
  2
UCS
  5
7
330
0
100
AcDbSymbolTable
 70
     0
  0
ENDTAB
  0
TABLE
  2
APPID
  5
9
330
0
100
AcDbSymbolTable
 70
     1
  0
APPID
  5
12
330
9
100
AcDbSymbolTableRecord
100
AcDbRegAppTableRecord
  2
ACAD
 70
     0
  0
ENDTAB
  0
TABLE
  2
DIMSTYLE
  5
A
330
0
100
AcDbSymbolTable
 70
     1
100
AcDbDimStyleTable
  0
DIMSTYLE
105
27
330
A
100
AcDbSymbolTableRecord
100
AcDbDimStyleTableRecord
  2
ISO-25
 70
     0
 41
2.5
 42
0.625
 43
3.75
 44
1.25
 73
     0
 74
     0
 77
     1
 78
     8
140
2.5
141
2.5
143
0.0393700787
147
0.625
171
     3
172
     1
178
     0
271
     2
272
     2
274
     3
278
    44
283
     0
284
     8
340
11
  0
ENDTAB
  0
TABLE
  2
BLOCK_RECORD
  5
1
330
0
100
AcDbSymbolTable
 70
     5
  0
BLOCK_RECORD
  5
1F
330
1
100
AcDbSymbolTableRecord
100
AcDbBlockTableRecord
  2
*Model_Space
340
22
  0
BLOCK_RECORD
  5
1B
330
1
100
AcDbSymbolTableRecord
100
AcDbBlockTableRecord
  2
*Paper_Space
340
1E
  0
BLOCK_RECORD
  5
23
330
1
100
AcDbSymbolTableRecord
100
AcDbBlockTableRecord
  2
*Paper_Space0
340
26
  0
BLOCK_RECORD
  5
95
330
1
100
AcDbSymbolTableRecord
100
AcDbBlockTableRecord
  2
SW_CENTERMARKSYMBOL_0
340
0
102
{BLKREFS
331
A0
102
}
  0
BLOCK_RECORD
  5
AA
330
1
100
AcDbSymbolTableRecord
100
AcDbBlockTableRecord
  2
SW_CENTERMARKSYMBOL_1
340
0
102
{BLKREFS
331
B5
102
}
  0
BLOCK_RECORD
  5
BF
330
1
100
AcDbSymbolTableRecord
100
AcDbBlockTableRecord
  2
SW_CENTERMARKSYMBOL_2
340
0
102
{BLKREFS
331
CA
102
}
  0
BLOCK_RECORD
  5
D2
330
1
100
AcDbSymbolTableRecord
100
AcDbBlockTableRecord
  2
SW_CENTERMARKSYMBOL_3
340
0
102
{BLKREFS
331
DD
102
}
  0
ENDTAB
  0
ENDSEC
  0
SECTION
  2
BLOCKS
  0
BLOCK
  5
20
330
1F
100
AcDbEntity
  8
0
100
AcDbBlockBegin
  2
*Model_Space
 70
     0
 10
0.0
 20
0.0
 30
0.0
  3
*Model_Space
  1

  0
ENDBLK
  5
21
330
1F
100
AcDbEntity
  8
0
100
AcDbBlockEnd
  0
BLOCK
  5
1C
330
1B
100
AcDbEntity
 67
     1
  8
0
100
AcDbBlockBegin
  2
*Paper_Space
 70
     0
 10
0.0
 20
0.0
 30
0.0
  3
*Paper_Space
  1

  0
ENDBLK
  5
1D
330
1B
100
AcDbEntity
 67
     1
  8
0
100
AcDbBlockEnd
  0
BLOCK
  5
24
330
23
100
AcDbEntity
  8
0
100
AcDbBlockBegin
  2
*Paper_Space0
 70
     0
 10
0.0
 20
0.0
 30
0.0
  3
*Paper_Space0
  1

  0
ENDBLK
  5
25
330
23
100
AcDbEntity
  8
0
100
AcDbBlockEnd
  0
BLOCK
  5
96
330
95
100
AcDbEntity
  8
0
100
AcDbBlockBegin
  2
SW_CENTERMARKSYMBOL_0
 70
     0
 10
0.0
 20
0.0
 30
0.0
  3
SW_CENTERMARKSYMBOL_0
  1

  0
LINE
  5
98
330
95
100
AcDbEntity
  8
FORMAT
 62
     0
100
AcDbLine
 10
0.0
 20
0.0
 30
0.0
 11
0.0
 21
2.5
 31
0.0
  0
LINE
  5
99
330
95
100
AcDbEntity
  8
FORMAT
 62
     0
100
AcDbLine
 10
0.0
 20
0.0
 30
0.0
 11
-2.5
 21
0.0
 31
0.0
  0
LINE
  5
9A
330
95
100
AcDbEntity
  8
FORMAT
 62
     0
100
AcDbLine
 10
0.0
 20
0.0
 30
0.0
 11
0.0
 21
-2.5
 31
0.0
  0
LINE
  5
9B
330
95
100
AcDbEntity
  8
FORMAT
 62
     0
100
AcDbLine
 10
0.0
 20
0.0
 30
0.0
 11
2.5
 21
0.0
 31
0.0
  0
LINE
  5
9C
330
95
100
AcDbEntity
  8
FORMAT
 62
     0
100
AcDbLine
 10
0.0
 20
5.0
 30
0.0
 11
0.0
 21
227.5
 31
0.0
  0
LINE
  5
9D
330
95
100
AcDbEntity
  8
FORMAT
 62
     0
100
AcDbLine
 10
-5.0
 20
0.0
 30
0.0
 11
-227.5
 21
0.0
 31
0.0
  0
LINE
  5
9E
330
95
100
AcDbEntity
  8
FORMAT
 62
     0
100
AcDbLine
 10
0.0
 20
-5.0
 30
0.0
 11
0.0
 21
-227.5
 31
0.0
  0
LINE
  5
9F
330
95
100
AcDbEntity
  8
FORMAT
 62
     0
100
AcDbLine
 10
5.0
 20
0.0
 30
0.0
 11
227.5
 21
0.0
 31
0.0
  0
ENDBLK
  5
97
330
95
100
AcDbEntity
  8
0
100
AcDbBlockEnd
  0
BLOCK
  5
AB
330
AA
100
AcDbEntity
  8
0
100
AcDbBlockBegin
  2
SW_CENTERMARKSYMBOL_1
 70
     0
 10
0.0
 20
0.0
 30
0.0
  3
SW_CENTERMARKSYMBOL_1
  1

  0
LINE
  5
AD
330
AA
100
AcDbEntity
  8
FORMAT
 62
     0
100
AcDbLine
 10
0.0
 20
0.0
 30
0.0
 11
0.0
 21
2.5
 31
0.0
  0
LINE
  5
AE
330
AA
100
AcDbEntity
  8
FORMAT
 62
     0
100
AcDbLine
 10
0.0
 20
0.0
 30
0.0
 11
-2.5
 21
0.0
 31
0.0
  0
LINE
  5
AF
330
AA
100
AcDbEntity
  8
FORMAT
 62
     0
100
AcDbLine
 10
0.0
 20
0.0
 30
0.0
 11
0.0
 21
-2.5
 31
0.0
  0
LINE
  5
B0
330
AA
100
AcDbEntity
  8
FORMAT
 62
     0
100
AcDbLine
 10
0.0
 20
0.0
 30
0.0
 11
2.5
 21
0.0
 31
0.0
  0
LINE
  5
B1
330
AA
100
AcDbEntity
  8
FORMAT
 62
     0
100
AcDbLine
 10
0.0
 20
5.0
 30
0.0
 11
0.0
 21
227.5
 31
0.0
  0
LINE
  5
B2
330
AA
100
AcDbEntity
  8
FORMAT
 62
     0
100
AcDbLine
 10
-5.0
 20
0.0
 30
0.0
 11
-227.5
 21
0.0
 31
0.0
  0
LINE
  5
B3
330
AA
100
AcDbEntity
  8
FORMAT
 62
     0
100
AcDbLine
 10
0.0
 20
-5.0
 30
0.0
 11
0.0
 21
-227.5
 31
0.0
  0
LINE
  5
B4
330
AA
100
AcDbEntity
  8
FORMAT
 62
     0
100
AcDbLine
 10
5.0
 20
0.0
 30
0.0
 11
227.5
 21
0.0
 31
0.0
  0
ENDBLK
  5
AC
330
AA
100
AcDbEntity
  8
0
100
AcDbBlockEnd
  0
BLOCK
  5
C0
330
BF
100
AcDbEntity
  8
0
100
AcDbBlockBegin
  2
SW_CENTERMARKSYMBOL_2
 70
     0
 10
0.0
 20
0.0
 30
0.0
  3
SW_CENTERMARKSYMBOL_2
  1

  0
LINE
  5
C2
330
BF
100
AcDbEntity
  8
FORMAT
 62
     0
100
AcDbLine
 10
0.0
 20
0.0
 30
0.0
 11
0.0
 21
2.5
 31
0.0
  0
LINE
  5
C3
330
BF
100
AcDbEntity
  8
FORMAT
 62
     0
100
AcDbLine
 10
0.0
 20
0.0
 30
0.0
 11
-2.5
 21
0.0
 31
0.0
  0
LINE
  5
C4
330
BF
100
AcDbEntity
  8
FORMAT
 62
     0
100
AcDbLine
 10
0.0
 20
0.0
 30
0.0
 11
0.0
 21
-2.5
 31
0.0
  0
LINE
  5
C5
330
BF
100
AcDbEntity
  8
FORMAT
 62
     0
100
AcDbLine
 10
0.0
 20
0.0
 30
0.0
 11
2.5
 21
0.0
 31
0.0
  0
LINE
  5
C6
330
BF
100
AcDbEntity
  8
FORMAT
 62
     0
100
AcDbLine
 10
0.0
 20
5.0
 30
0.0
 11
0.0
 21
227.5
 31
0.0
  0
LINE
  5
C7
330
BF
100
AcDbEntity
  8
FORMAT
 62
     0
100
AcDbLine
 10
-5.0
 20
0.0
 30
0.0
 11
-227.5
 21
0.0
 31
0.0
  0
LINE
  5
C8
330
BF
100
AcDbEntity
  8
FORMAT
 62
     0
100
AcDbLine
 10
0.0
 20
-5.0
 30
0.0
 11
0.0
 21
-227.5
 31
0.0
  0
LINE
  5
C9
330
BF
100
AcDbEntity
  8
FORMAT
 62
     0
100
AcDbLine
 10
5.0
 20
0.0
 30
0.0
 11
227.5
 21
0.0
 31
0.0
  0
ENDBLK
  5
C1
330
BF
100
AcDbEntity
  8
0
100
AcDbBlockEnd
  0
BLOCK
  5
D3
330
D2
100
AcDbEntity
  8
0
100
AcDbBlockBegin
  2
SW_CENTERMARKSYMBOL_3
 70
     0
 10
0.0
 20
0.0
 30
0.0
  3
SW_CENTERMARKSYMBOL_3
  1

  0
LINE
  5
D5
330
D2
100
AcDbEntity
  8
FORMAT
 62
     0
100
AcDbLine
 10
0.0
 20
0.0
 30
0.0
 11
0.0
 21
2.5
 31
0.0
  0
LINE
  5
D6
330
D2
100
AcDbEntity
  8
FORMAT
 62
     0
100
AcDbLine
 10
0.0
 20
0.0
 30
0.0
 11
-2.5
 21
0.0
 31
0.0
  0
LINE
  5
D7
330
D2
100
AcDbEntity
  8
FORMAT
 62
     0
100
AcDbLine
 10
0.0
 20
0.0
 30
0.0
 11
0.0
 21
-2.5
 31
0.0
  0
LINE
  5
D8
330
D2
100
AcDbEntity
  8
FORMAT
 62
     0
100
AcDbLine
 10
0.0
 20
0.0
 30
0.0
 11
2.5
 21
0.0
 31
0.0
  0
LINE
  5
D9
330
D2
100
AcDbEntity
  8
FORMAT
 62
     0
100
AcDbLine
 10
0.0
 20
5.0
 30
0.0
 11
0.0
 21
227.5
 31
0.0
  0
LINE
  5
DA
330
D2
100
AcDbEntity
  8
FORMAT
 62
     0
100
AcDbLine
 10
-5.0
 20
0.0
 30
0.0
 11
-227.5
 21
0.0
 31
0.0
  0
LINE
  5
DB
330
D2
100
AcDbEntity
  8
FORMAT
 62
     0
100
AcDbLine
 10
0.0
 20
-5.0
 30
0.0
 11
0.0
 21
-227.5
 31
0.0
  0
LINE
  5
DC
330
D2
100
AcDbEntity
  8
FORMAT
 62
     0
100
AcDbLine
 10
5.0
 20
0.0
 30
0.0
 11
227.5
 21
0.0
 31
0.0
  0
ENDBLK
  5
D4
330
D2
100
AcDbEntity
  8
0
100
AcDbBlockEnd
  0
ENDSEC
  0
SECTION
  2
ENTITIES
  0
LINE
  5
83
330
1F
100
AcDbEntity
  8
0
  6
Continuous
 62
     7
370
    25
100
AcDbLine
 10
-222.0853716263
 20
15.8304955018
 30
0.0
 11
-222.0853716263
 21
-281.1695044982
 31
0.0
  0
LINE
  5
84
330
1F
100
AcDbEntity
  8
0
  6
Continuous
 62
     7
370
    25
100
AcDbLine
 10
227.9146283737
 20
-281.1695044982
 30
0.0
 11
227.9146283737
 21
15.8304955018
 31
0.0
  0
ARC
  5
85
330
1F
100
AcDbEntity
  8
0
  6
Continuous
 62
     7
370
    25
100
AcDbCircle
 10
227.9146283737
 20
15.8304955018
 30
0.0
 40
450.0
100
AcDbArc
 50
90.0
 51
180.0
  0
LINE
  5
86
330
1F
100
AcDbEntity
  8
0
  6
Continuous
 62
     7
370
    25
100
AcDbLine
 10
524.9146283737
 20
465.8304955018
 30
0.0
 11
227.9146283737
 21
465.8304955018
 31
0.0
  0
LINE
  5
87
330
1F
100
AcDbEntity
  8
0
  6
Continuous
 62
     7
370
    25
100
AcDbLine
 10
227.9146283737
 20
15.8304955018
 30
0.0
 11
524.9146283737
 21
15.8304955018
 31
0.0
  0
LINE
  5
88
330
1F
100
AcDbEntity
  8
0
  6
Continuous
 62
     7
370
    25
100
AcDbLine
 10
2.9146283737
 20
-281.1695044982
 30
0.0
 11
227.9146283737
 21
-281.1695044982
 31
0.0
  0
LINE
  5
89
330
1F
100
AcDbEntity
  8
0
  6
Continuous
 62
     7
370
    25
100
AcDbLine
 10
-222.0853716263
 20
-281.1695044982
 30
0.0
 11
2.9146283737
 21
-281.1695044982
 31
0.0
  0
LINE
  5
8A
330
1F
100
AcDbEntity
  8
0
  6
Continuous
 62
     7
370
    25
100
AcDbLine
 10
524.9146283737
 20
240.8304955018
 30
0.0
 11
524.9146283737
 21
15.8304955018
 31
0.0
  0
LINE
  5
8B
330
1F
100
AcDbEntity
  8
0
  6
Continuous
 62
     7
370
    25
100
AcDbLine
 10
524.9146283737
 20
465.8304955018
 30
0.0
 11
524.9146283737
 21
240.8304955018
 31
0.0
  0
LINE
  5
8C
330
1F
100
AcDbEntity
  8
0
  6
Continuous
 62
     1
370
    25
100
AcDbLine
 10
-222.0853716263
 20
15.8304955018
 30
0.0
 11
227.9146283737
 21
15.8304955018
 31
0.0
  0
LINE
  5
8D
330
1F
100
AcDbEntity
  8
0
  6
Continuous
 62
     1
370
    25
100
AcDbLine
 10
227.9146283737
 20
465.8304955018
 30
0.0
 11
227.9146283737
 21
15.8304955018
 31
0.0
  0
LINE
  5
8E
330
1F
100
AcDbEntity
  8
0
  6
Continuous
 62
     7
370
    25
100
AcDbLine
 10
1199.4042449782
 20
15.8304955018
 30
0.0
 11
1199.4042449782
 21
-281.1695044982
 31
0.0
  0
LINE
  5
8F
330
1F
100
AcDbEntity
  8
0
  6
Continuous
 62
     7
370
    25
100
AcDbLine
 10
1649.4042449782
 20
-281.1695044982
 30
0.0
 11
1649.4042449782
 21
15.8304955018
 31
0.0
  0
LINE
  5
90
330
1F
100
AcDbEntity
  8
0
  6
Continuous
 62
     7
370
    25
100
AcDbLine
 10
1649.4042449782
 20
15.8304955018
 30
0.0
 11
1649.4042449782
 21
240.8304955018
 31
0.0
  0
LINE
  5
91
330
1F
100
AcDbEntity
  8
0
  6
Continuous
 62
     7
370
    25
100
AcDbLine
 10
1199.4042449782
 20
240.8304955018
 30
0.0
 11
1199.4042449782
 21
15.8304955018
 31
0.0
  0
LINE
  5
92
330
1F
100
AcDbEntity
  8
0
  6
Continuous
 62
     7
370
    25
100
AcDbLine
 10
1199.4042449782
 20
-281.1695044982
 30
0.0
 11
1649.4042449782
 21
-281.1695044982
 31
0.0
  0
ARC
  5
93
330
1F
100
AcDbEntity
  8
0
  6
Continuous
 62
     7
370
    25
100
AcDbCircle
 10
1424.4042449782
 20
240.8304955018
 30
0.0
 40
225.0000000000002
100
AcDbArc
 50
0.0
 51
180.0
  0
LINE
  5
94
330
1F
100
AcDbEntity
  8
0
  6
Continuous
 62
     1
370
    25
100
AcDbLine
 10
1199.4042449782
 20
15.8304955018
 30
0.0
 11
1649.4042449782
 21
15.8304955018
 31
0.0
  0
INSERT
  5
A0
330
1F
100
AcDbEntity
  8
FORMAT
 62
     7
100
AcDbBlockReference
  2
SW_CENTERMARKSYMBOL_0
 10
1424.4042449782
 20
240.8304955018
 30
0.0
  0
LINE
  5
A1
330
1F
100
AcDbEntity
  8
0
  6
Continuous
 62
     7
370
    25
100
AcDbLine
 10
524.9146283737
 20
1371.6470491313
 30
0.0
 11
227.9146283737
 21
1371.6470491313
 31
0.0
  0
LINE
  5
A2
330
1F
100
AcDbEntity
  8
0
  6
Continuous
 62
     7
370
    25
100
AcDbLine
 10
227.9146283737
 20
921.6470491313
 30
0.0
 11
524.9146283737
 21
921.6470491313
 31
0.0
  0
LINE
  5
A3
330
1F
100
AcDbEntity
  8
0
  6
Continuous
 62
     7
370
    25
100
AcDbLine
 10
227.9146283737
 20
1371.6470491313
 30
0.0
 11
2.9146283737
 21
1371.6470491313
 31
0.0
  0
LINE
  5
A4
330
1F
100
AcDbEntity
  8
0
  6
Continuous
 62
     7
370
    25
100
AcDbLine
 10
2.9146283737
 20
921.6470491313
 30
0.0
 11
227.9146283737
 21
921.6470491313
 31
0.0
  0
CIRCLE
  5
A5
330
1F
100
AcDbEntity
  8
0
  6
Continuous
 62
     7
370
    25
100
AcDbCircle
 10
2.9146283737
 20
1146.6470491313
 30
0.0
 40
184.1000000000001
  0
CIRCLE
  5
A6
330
1F
100
AcDbEntity
  8
0
  6
Continuous
 62
     7
370
    25
100
AcDbCircle
 10
2.9146283737
 20
1146.6470491313
 30
0.0
 40
225.0000000000002
  0
LINE
  5
A7
330
1F
100
AcDbEntity
  8
0
  6
Continuous
 62
     7
370
    25
100
AcDbLine
 10
524.9146283737
 20
1371.6470491313
 30
0.0
 11
524.9146283737
 21
921.6470491313
 31
0.0
  0
LINE
  5
A8
330
1F
100
AcDbEntity
  8
0
  6
Continuous
 62
     1
370
    25
100
AcDbLine
 10
227.9146283737
 20
1146.6470491313
 30
0.0
 11
227.9146283737
 21
921.6470491313
 31
0.0
  0
LINE
  5
A9
330
1F
100
AcDbEntity
  8
0
  6
Continuous
 62
     1
370
    25
100
AcDbLine
 10
227.9146283737
 20
1371.6470491313
 30
0.0
 11
227.9146283737
 21
1146.6470491313
 31
0.0
  0
INSERT
  5
B5
330
1F
100
AcDbEntity
  8
FORMAT
 62
     7
100
AcDbBlockReference
  2
SW_CENTERMARKSYMBOL_1
 10
2.9146283737
 20
1146.6470491313
 30
0.0
  0
LINE
  5
B6
330
1F
100
AcDbEntity
  8
0
  6
Continuous
 62
     7
370
    25
100
AcDbLine
 10
-1213.809199996
 20
240.8304955018
 30
0.0
 11
-1213.809199996
 21
15.8304955018
 31
0.0
  0
LINE
  5
B7
330
1F
100
AcDbEntity
  8
0
  6
Continuous
 62
     7
370
    25
100
AcDbLine
 10
-763.809199996
 20
15.8304955018
 30
0.0
 11
-763.809199996
 21
240.8304955018
 31
0.0
  0
LINE
  5
B8
330
1F
100
AcDbEntity
  8
0
  6
Continuous
 62
     7
370
    25
100
AcDbLine
 10
-1213.809199996
 20
15.8304955018
 30
0.0
 11
-1213.809199996
 21
-281.1695044982
 31
0.0
  0
LINE
  5
B9
330
1F
100
AcDbEntity
  8
0
  6
Continuous
 62
     7
370
    25
100
AcDbLine
 10
-763.809199996
 20
-281.1695044982
 30
0.0
 11
-763.809199996
 21
15.8304955018
 31
0.0
  0
CIRCLE
  5
BA
330
1F
100
AcDbEntity
  8
0
  6
Continuous
 62
     7
370
    25
100
AcDbCircle
 10
-988.809199996
 20
240.8304955018
 30
0.0
 40
224.9999999999999
  0
CIRCLE
  5
BB
330
1F
100
AcDbEntity
  8
0
  6
Continuous
 62
     7
370
    25
100
AcDbCircle
 10
-988.809199996
 20
240.8304955018
 30
0.0
 40
184.1
  0
LINE
  5
BC
330
1F
100
AcDbEntity
  8
0
  6
Continuous
 62
     7
370
    25
100
AcDbLine
 10
-1213.809199996
 20
-281.1695044982
 30
0.0
 11
-763.809199996
 21
-281.1695044982
 31
0.0
  0
LINE
  5
BD
330
1F
100
AcDbEntity
  8
0
  6
Continuous
 62
     1
370
    25
100
AcDbLine
 10
-988.809199996
 20
15.8304955018
 30
0.0
 11
-763.809199996
 21
15.8304955018
 31
0.0
  0
LINE
  5
BE
330
1F
100
AcDbEntity
  8
0
  6
Continuous
 62
     1
370
    25
100
AcDbLine
 10
-1213.809199996
 20
15.8304955018
 30
0.0
 11
-988.809199996
 21
15.8304955018
 31
0.0
  0
INSERT
  5
CA
330
1F
100
AcDbEntity
  8
FORMAT
 62
     7
100
AcDbBlockReference
  2
SW_CENTERMARKSYMBOL_2
 10
-988.809199996
 20
240.8304955018
 30
0.0
  0
LINE
  5
CB
330
1F
100
AcDbEntity
  8
0
  6
Continuous
 62
     7
370
    25
100
AcDbLine
 10
2.9146283737
 20
-1296.3225896152
 30
0.0
 11
227.9146283737
 21
-1296.3225896152
 31
0.0
  0
LINE
  5
CC
330
1F
100
AcDbEntity
  8
0
  6
Continuous
 62
     7
370
    25
100
AcDbLine
 10
227.9146283737
 20
-846.3225896152
 30
0.0
 11
2.9146283737
 21
-846.3225896152
 31
0.0
  0
LINE
  5
CD
330
1F
100
AcDbEntity
  8
0
  6
Continuous
 62
     7
370
    25
100
AcDbLine
 10
524.9146283737
 20
-846.3225896152
 30
0.0
 11
227.9146283737
 21
-846.3225896152
 31
0.0
  0
LINE
  5
CE
330
1F
100
AcDbEntity
  8
0
  6
Continuous
 62
     7
370
    25
100
AcDbLine
 10
227.9146283737
 20
-1296.3225896152
 30
0.0
 11
524.9146283737
 21
-1296.3225896152
 31
0.0
  0
ARC
  5
CF
330
1F
100
AcDbEntity
  8
0
  6
Continuous
 62
     7
370
    25
100
AcDbCircle
 10
2.9146283737
 20
-1071.3225896152
 30
0.0
 40
225.0
100
AcDbArc
 50
90.0
 51
270.0
  0
LINE
  5
D0
330
1F
100
AcDbEntity
  8
0
  6
Continuous
 62
     7
370
    25
100
AcDbLine
 10
524.9146283737
 20
-846.3225896152
 30
0.0
 11
524.9146283737
 21
-1296.3225896152
 31
0.0
  0
LINE
  5
D1
330
1F
100
AcDbEntity
  8
0
  6
Continuous
 62
     1
370
    25
100
AcDbLine
 10
227.9146283737
 20
-846.3225896152
 30
0.0
 11
227.9146283737
 21
-1296.3225896152
 31
0.0
  0
INSERT
  5
DD
330
1F
100
AcDbEntity
  8
FORMAT
 62
     7
100
AcDbBlockReference
  2
SW_CENTERMARKSYMBOL_3
 10
2.9146283737
 20
-1071.3225896152
 30
0.0
  0
LINE
  5
DE
330
1F
100
AcDbEntity
  8
0
  6
Continuous
 62
     7
370
    25
100
AcDbLine
 10
1259.0034115881
 20
-413.026737558
 30
0.0
 11
1048.9926975757
 21
-534.2633421637
 31
0.0
  0
LINE
  5
DF
330
1F
100
AcDbEntity
  8
0
  6
Continuous
 62
     7
370
    25
100
AcDbLine
 10
1273.9744124188
 20
-923.985330235
 30
0.0
 11
1483.9851264313
 21
-802.7487256294
 31
0.0
  0
LINE
  5
E0
330
1F
100
AcDbEntity
  8
0
  6
Continuous
 62
     7
370
    25
100
AcDbLine
 10
777.3845292303
 20
-1004.6919314537
 30
0.0
 11
777.3845292303
 21
-1247.2045525838
 31
0.0
  0
LINE
  5
E1
330
1F
100
AcDbEntity
  8
0
  6
Continuous
 62
     7
370
    25
100
AcDbLine
 10
1227.3845292303
 20
-1247.2045525838
 30
0.0
 11
1227.3845292303
 21
-1004.6919314537
 31
0.0
  0
SPLINE
  5
E2
330
1F
100
AcDbEntity
  8
0
  6
Continuous
 62
     7
370
    25
100
AcDbSpline
210
0.0
220
0.0
230
1.0
 70
     8
 71
     3
 72
    55
 73
    51
 74
     0
 42
0.00000001
 43
0.00000001
 40
0.0
 40
0.0
 40
0.0
 40
0.0
 40
0.0135765321111733
 40
0.0344825398132022
 40
0.0554204556745161
 40
0.0764319585005579
 40
0.0975004154018337
 40
0.1186098412137962
 40
0.1397449939706361
 40
0.1608894229926767
 40
0.182029268406534
 40
0.2031544428079753
 40
0.2242567754526486
 40
0.2453300177896938
 40
0.2663697689544763
 40
0.287373349045362
 40
0.3083396395643274
 40
0.329268907494155
 40
0.350162625824822
 40
0.371023299647778
 40
0.3918543036359389
 40
0.4126597340193688
 40
0.4334442760906005
 40
0.4542130867711765
 40
0.4749716907407017
 40
0.4957258879582256
 40
0.5164816699877732
 40
0.5372445471133366
 40
0.5580192223392489
 40
0.5788118313566031
 40
0.59962842108936
 40
0.620474867796247
 40
0.6413567869427659
 40
0.6622794316851103
 40
0.6832475771128483
 40
0.7042653877915
 40
0.7253362668383222
 40
0.7464626858809467
 40
0.7676459969292361
 40
0.7888862295706242
 40
0.8101818800651793
 40
0.8315297028492209
 40
0.8529245194451592
 40
0.8743590643304796
 40
0.8958238911042559
 40
0.9173068928844105
 40
0.9387898128275128
 40
0.9602565350052482
 40
0.9816896277245751
 40
1.0
 40
1.0
 40
1.0
 40
1.0
 10
1048.992697575732
 20
-534.2633421637173
 30
0.0
 10
1046.85050473557
 20
-535.514506205589
 30
0.0
 10
1041.409627102491
 20
-538.6922922214437
 30
0.0
 10
1032.778400837887
 20
-544.0384702811868
 30
0.0
 10
1023.113362811735
 20
-550.3494596101868
 30
0.0
 10
1013.559567758305
 20
-556.9394099356839
 30
0.0
 10
1004.116594754536
 20
-563.7998630032313
 30
0.0
 10
994.7955629294829
 20
-570.9227063651401
 30
0.0
 10
985.6064182433461
 20
-578.2972816448807
 30
0.0
 10
976.5587376173314
 20
-585.9129540353522
 30
0.0
 10
967.6610482807275
 20
-593.7589111405331
 30
0.0
 10
958.920544345163
 20
-601.8248470101097
 30
0.0
 10
950.3432515583494
 20
-610.1009815302318
 30
0.0
 10
941.9343680209307
 20
-618.5779403148254
 30
0.0
 10
933.6983460428403
 20
-627.2468193515766
 30
0.0
 10
925.6389923793837
 20
-636.0992227679483
 30
0.0
 10
917.7595746159973
 20
-645.1272745688698
 30
0.0
 10
910.0629273563902
 20
-654.3236113777581
 30
0.0
 10
902.5515530723626
 20
-663.6813612090389
 30
0.0
 10
895.2277145411401
 20
-673.1941130838835
 30
0.0
 10
888.0935172756956
 20
-682.8558812748738
 30
0.0
 10
881.1509815371413
 20
-692.6610670553446
 30
0.0
 10
874.4021043289836
 20
-702.6044199373907
 30
0.0
 10
867.8489122873003
 20
-712.6809996155413
 30
0.0
 10
861.4935066557009
 20
-722.8861391934971
 30
0.0
 10
855.3381016352765
 20
-733.215409752697
 30
0.0
 10
849.3851142667612
 20
-743.6644860522073
 30
0.0
 10
843.6372604457703
 20
-754.2289629567274
 30
0.0
 10
838.0974225750856
 20
-764.9045597218704
 30
0.0
 10
832.7686215385605
 20
-775.6871953607467
 30
0.0
 10
827.6539822651665
 20
-786.5731103116634
 30
0.0
 10
822.7568875764897
 20
-797.5585789505495
 30
0.0
 10
818.0809971435627
 20
-808.6398615327126
 30
0.0
 10
813.6302645928396
 20
-819.8131490177891
 30
0.0
 10
809.4089521572696
 20
-831.074499217078
 30
0.0
 10
805.4216418335784
 20
-842.4197629046304
 30
0.0
 10
801.6732415342005
 20
-853.8444988829851
 30
0.0
 10
798.168984273352
 20
-865.3438775961837
 30
0.0
 10
794.9144177779956
 20
-876.9125738287406
 30
0.0
 10
791.9153821025052
 20
-888.544650301104
 30
0.0
 10
789.1779702787438
 20
-900.2334359392228
 30
0.0
 10
786.7084756052143
 20
-911.9714039903175
 30
0.0
 10
784.513297595326
 20
-923.750060496026
 30
0.0
 10
782.5988996227527
 20
-935.5598452081306
 30
0.0
 10
780.9714759405266
 20
-947.3900029997036
 30
0.0
 10
779.6377043381437
 20
-959.2277463222871
 30
0.0
 10
778.601325096679
 20
-971.0593126320331
 30
0.0
 10
777.8744503894671
 20
-982.8691577608823
 30
0.0
 10
777.4555758844435
 20
-994.0822470722464
 30
0.0
 10
777.4069375799992
 20
-1001.345601910585
 30
0.0
 10
777.384529230316
 20
-1004.691931453719
 30
0.0
  0
SPLINE
  5
E3
330
1F
100
AcDbEntity
  8
0
  6
Continuous
 62
     7
370
    25
100
AcDbSpline
210
0.0
220
0.0
230
1.0
 70
     8
 71
     3
 72
    48
 73
    44
 74
     0
 42
0.00000001
 43
0.00000001
 40
0.0
 40
0.0
 40
0.0
 40
0.0
 40
0.0067695447007038
 40
0.0338883904944163
 40
0.0603655011967393
 40
0.0863050497178934
 40
0.1118058081629015
 40
0.136960218405563
 40
0.1618535680944802
 40
0.1865632636757352
 40
0.2111582074513733
 40
0.2356982967651989
 40
0.2602340696978117
 40
0.2848063660557188
 40
0.3094356424935542
 40
0.3341471238821234
 40
0.3589569883495354
 40
0.3838730332262488
 40
0.4088954570055511
 40
0.434017807573724
 40
0.4592280725888624
 40
0.4845098858343918
 40
0.5098438233096052
 40
0.5352087642805401
 40
0.5605768037275358
 40
0.5859272064160034
 40
0.6112431079597515
 40
0.6365120726662088
 40
0.6617274109375694
 40
0.686889401790291
 40
0.7120063853720563
 40
0.7370956900857901
 40
0.7621843612512024
 40
0.7873096646279435
 40
0.8125055959509956
 40
0.8378250467944356
 40
0.8633325804175086
 40
0.8891024816593701
 40
0.9152181239088958
 40
0.941771187666366
 40
0.968860753589082
 40
0.9965922915188173
 40
1.0
 40
1.0
 40
1.0
 40
1.0
 10
1227.382710311282
 20
-1004.883743413463
 30
0.0
 10
1227.382518295016
 20
-1004.892430317558
 30
0.0
 10
1227.381557060177
 20
-1004.935917023264
 30
0.0
 10
1227.390360014665
 20
-1004.717107966653
 30
0.0
 10
1227.430534730687
 20
-1004.215666035943
 30
0.0
 10
1227.516774841802
 20
-1003.403809389665
 30
0.0
 10
1227.662101168105
 20
-1002.321214086383
 30
0.0
 10
1227.879406713598
 20
-1000.970761558816
 30
0.0
 10
1228.180302949408
 20
-999.3656027087845
 30
0.0
 10
1228.57541682038
 20
-997.5171081970213
 30
0.0
 10
1229.074258453229
 20
-995.438277932851
 30
0.0
 10
1229.685153719797
 20
-993.1430970398998
 30
0.0
 10
1230.415116965275
 20
-990.6469445020347
 30
0.0
 10
1231.269582922124
 20
-987.9670701262688
 30
0.0
 10
1232.25233477696
 20
-985.1222855322619
 30
0.0
 10
1233.365380076118
 20
-982.1328968422473
 30
0.0
 10
1234.609049606896
 20
-979.0201312182395
 30
0.0
 10
1235.981713157516
 20
-975.8065591650072
 30
0.0
 10
1237.479688373183
 20
-972.5159307628938
 30
0.0
 10
1239.097184712979
 20
-969.172950167951
 30
0.0
 10
1240.826289270939
 20
-965.8029950692822
 30
0.0
 10
1242.656998071924
 20
-962.4317922720762
 30
0.0
 10
1244.577294101128
 20
-959.0850621475462
 30
0.0
 10
1246.573101514064
 20
-955.7884256944608
 30
0.0
 10
1248.628588271073
 20
-952.5667351927018
 30
0.0
 10
1250.726428275702
 20
-949.4436186405662
 30
0.0
 10
1252.848261380538
 20
-946.4408561190987
 30
0.0
 10
1254.974820014983
 20
-943.5783232379955
 30
0.0
 10
1257.086185086582
 20
-940.8737727261303
 30
0.0
 10
1259.162062171914
 20
-938.3426373610803
 30
0.0
 10
1261.182042524832
 20
-935.9978960409139
 30
0.0
 10
1263.125836017401
 20
-933.8500065953612
 30
0.0
 10
1264.973461071672
 20
-931.9069069157551
 30
0.0
 10
1266.705073100372
 20
-930.1743911161649
 30
0.0
 10
1268.301343577902
 20
-928.6558504427503
 30
0.0
 10
1269.74368536859
 20
-927.3522739294475
 30
0.0
 10
1271.014241440582
 20
-926.2623952140914
 30
0.0
 10
1272.096531967955
 20
-925.3825549825569
 30
0.0
 10
1272.971752314591
 20
-924.7090753141939
 30
0.0
 10
1273.632135147944
 20
-924.2302633028754
 30
0.0
 10
1274.028977209665
 20
-923.9578521486851
 30
0.0
 10
1274.198846368927
 20
-923.8520472040082
 30
0.0
 10
1274.155678109058
 20
-923.8780221472945
 30
0.0
 10
1274.150954011264
 20
-923.8808647027427
 30
0.0
  0
LWPOLYLINE
  5
E4
330
1F
100
AcDbEntity
  8
0
  6
Continuous
 62
     7
370
    25
100
AcDbPolyline
 90
      160
 70
   128
 43
0.0
 10
1212.3952432427
 20
-516.0418190136
 10
1212.519450364
 20
-523.3717421509
 10
1212.8918777931
 20
-530.8336269729
 10
1213.5119440289
 20
-538.4158226325
 10
1214.3786809115
 20
-546.1064904311
 10
1215.4907351342
 20
-553.8936223039
 10
1216.8463703563
 20
-561.7650595689
 10
1218.4434699144
 20
-569.7085119111
 10
1220.279540127
 20
-577.7115765727
 10
1222.3517141884
 20
-585.7617577183
 10
1224.656756645
 20
-593.8464859456
 10
1227.1910684464
 20
-601.9531379111
 10
1229.9506925657
 20
-610.0690560402
 10
1232.9313201774
 20
-618.1815682901
 10
1236.1282973853
 20
-626.278007936
 10
1239.536632489
 20
-634.3457333484
 10
1243.1510037778
 20
-642.3721477319
 10
1246.9657678399
 20
-650.3447187931
 10
1250.9749683742
 20
-658.2509983087
 10
1255.17234549
 20
-666.0786415618
 10
1259.5513454811
 20
-673.8154266167
 10
1264.1051310589
 20
-681.4492734019
 10
1268.8265920277
 20
-688.9682625718
 10
1273.7083563867
 20
-696.3606541175
 10
1278.7428018404
 20
-703.614905697
 10
1283.9220676999
 20
-710.7196906576
 10
1289.2380671562
 20
-717.6639157211
 10
1294.6824999073
 20
-724.4367383042
 10
1300.2468651178
 20
-731.0275834486
 10
1305.9224746919
 20
-737.4261603319
 10
1311.700466839
 20
-743.6224783358
 10
1317.5718199102
 20
-749.6068626454
 10
1323.5273664847
 20
-755.3699693549
 10
1329.5578076834
 20
-760.9028000574
 10
1335.6537276884
 20
-766.1967158944
 10
1341.8056084441
 20
-771.2434510449
 10
1348.0038445191
 20
-776.0351256309
 10
1354.2387581034
 20
-780.5642580214
 10
1360.5006141196
 20
-784.8237765139
 10
1366.7796354229
 20
-788.8070303758
 10
1373.0660180669
 20
-792.507800229
 10
1379.3499466113
 20
-795.9203077608
 10
1385.6216094477
 20
-799.0392247457
 10
1391.871214119
 20
-801.8596813651
 10
1398.0890026094
 20
-804.3772738108
 10
1404.2652665802
 20
-806.5880711611
 10
1410.3903625285
 20
-808.4886215182
 10
1416.4547268441
 20
-810.0759573985
 10
1422.4488907418
 20
-811.3476003654
 10
1428.3634950464
 20
-812.3015648993
 10
1434.1893048053
 20
-812.936361498
 10
1439.9172237082
 20
-813.2509990017
 10
1445.5383082896
 20
-813.2449861415
 10
1451.0437818932
 20
-812.9183323057
 10
1456.4250483755
 20
-812.2715475255
 10
1461.6737055278
 20
-811.3056416785
 10
1466.7815581949
 20
-810.022122912
 10
1471.7406310712
 20
-808.4229952884
 10
1476.5431811531
 20
-806.5107556554
 10
1481.1817098287
 20
-804.2883897483
 10
1485.6489745862
 20
-801.7593675277
 10
1489.9380003219
 20
-798.9276377615
 10
1494.0420902313
 20
-795.7976218597
 10
1497.9548362651
 20
-792.3742069704
 10
1501.670129135
 20
-788.6627383497
 10
1505.182167852
 20
-784.6690110153
 10
1508.4854687848
 20
-780.3992606982
 10
1511.5748742209
 20
-775.8601541067
 10
1514.4455604205
 20
-771.0587785171
 10
1517.093045148
 20
-766.0026307072
 10
1519.5131946701
 20
-760.6996052518
 10
1521.7022302107
 20
-755.1579821955
 10
1523.6567338507
 20
-749.3864141249
 10
1525.3736538645
 20
-743.3939126584
 10
1526.8503094855
 20
-737.1898343758
 10
1528.0843950912
 20
-730.7838662087
 10
1529.0739838034
 20
-724.1860103161
 10
1529.8175304967
 20
-717.4065684667
 10
1530.3138742114
 20
-710.4561259542
 10
1530.5622399655
 20
-703.3455350695
 10
1530.5622399655
 20
-696.0858981562
 10
1530.3138742114
 20
-688.6885502756
 10
1529.8175304967
 20
-681.1650415082
 10
1529.0739838034
 20
-673.52711892
 10
1528.0843950912
 20
-665.7867082203
 10
1526.8503094855
 20
-657.9558951416
 10
1525.3736538645
 20
-650.0469065689
 10
1523.6567338507
 20
-642.0720914492
 10
1521.7022302107
 20
-634.0439015095
 10
1519.5131946701
 20
-625.9748718153
 10
1517.093045148
 20
-617.8776011988
 10
1514.4455604205
 20
-609.7647325868
 10
1511.5748742209
 20
-601.6489332605
 10
1508.4854687848
 20
-593.5428750772
 10
1505.182167852
 20
-585.4592146846
 10
1501.670129135
 20
-577.4105737586
 10
1497.9548362651
 20
-569.4095192968
 10
1494.0420902313
 20
-561.4685439959
 10
1489.9380003219
 20
-553.600046746
 10
1485.6489745862
 20
-545.8163132718
 10
1481.1817098287
 20
-538.1294969489
 10
1476.5431811531
 20
-530.5515998286
 10
1471.7406310712
 20
-523.0944538978
 10
1466.7815581949
 20
-515.7697026044
 10
1461.6737055278
 20
-508.5887826783
 10
1456.4250483755
 20
-501.5629062734
 10
1451.0437818932
 20
-494.7030434618
 10
1445.5383082896
 20
-488.0199051048
 10
1439.9172237082
 20
-481.5239261297
 10
1434.1893048053
 20
-475.2252492366
 10
1428.3634950464
 20
-469.1337090616
 10
1422.4488907418
 20
-463.2588168218
 10
1416.4547268441
 20
-457.6097454639
 10
1410.3903625285
 20
-452.1953153423
 10
1404.2652665802
 20
-447.0239804468
 10
1398.0890026094
 20
-442.1038152031
 10
1391.871214119
 20
-437.4425018651
 10
1385.6216094477
 20
-433.0473185203
 10
1379.3499466113
 20
-428.9251277256
 10
1373.0660180669
 20
-425.0823657928
 10
1366.7796354229
 20
-421.5250327383
 10
1360.5006141196
 20
-418.2586829156
 10
1354.2387581034
 20
-415.288416342
 10
1348.0038445191
 20
-412.6188707363
 10
1341.8056084441
 20
-410.2542142769
 10
1335.6537276884
 20
-408.1981390944
 10
1329.5578076834
 20
-406.453855506
 10
1323.5273664847
 20
-405.0240870034
 10
1317.5718199102
 20
-403.9110660006
 10
1311.700466839
 20
-403.1165303475
 10
1305.9224746919
 20
-402.6417206174
 10
1300.2468651178
 20
-402.4873781693
 10
1294.6824999073
 20
-402.6537439905
 10
1289.2380671562
 20
-403.1405583206
 10
1283.9220676999
 20
-403.9470610569
 10
1278.7428018404
 20
-405.071992941
 10
1273.7083563867
 20
-406.5135975253
 10
1268.8265920277
 20
-408.2696239154
 10
1264.1051310589
 20
-410.3373302846
 10
1259.5513454811
 20
-412.7134881548
 10
1255.17234549
 20
-415.3943874375
 10
1250.9749683742
 20
-418.3758422268
 10
1246.9657678399
 20
-421.6531973349
 10
1243.1510037778
 20
-425.2213355609
 10
1239.536632489
 20
-429.0746856804
 10
1236.1282973853
 20
-433.2072311448
 10
1232.9313201774
 20
-437.6125194749
 10
1229.9506925657
 20
-442.2836723357
 10
1227.1910684464
 20
-447.2133962767
 10
1224.656756645
 20
-452.3939941191
 10
1222.3517141884
 20
-457.8173769744
 10
1220.279540127
 20
-463.475076874
 10
1218.4434699144
 20
-469.3582599911
 10
1216.8463703563
 20
-475.4577404337
 10
1215.4907351342
 20
-481.7639945871
 10
1214.3786809115
 20
-488.267175984
 10
1213.5119440289
 20
-494.9571306787
 10
1212.8918777931
 20
-501.8234131011
 10
1212.519450364
 20
-508.8553023662
 10
1212.3952432427
 20
-516.0418190136
  0
LWPOLYLINE
  5
E5
330
1F
100
AcDbEntity
  8
0
  6
Continuous
 62
     7
370
    25
100
AcDbPolyline
 90
      145
 70
   128
 43
0.0
 10
1241.3159105932
 20
-532.7373649004
 10
1241.4398115453
 20
-526.2517998615
 10
1241.8112785489
 20
-519.9216334585
 10
1242.4296044956
 20
-513.7589155229
 10
1243.2936123668
 20
-507.7753771387
 10
1244.4016574743
 20
-501.9824083112
 10
1245.7516305913
 20
-496.3910362859
 10
1247.3409619674
 20
-491.0119045571
 10
1249.1666262197
 20
-485.8552526078
 10
1251.2251480928
 20
-480.9308964182
 10
1253.5126090732
 20
-476.2482097801
 10
1256.024654849
 20
-471.8161064537
 10
1258.7565035981
 20
-467.6430231995
 10
1261.7029550913
 20
-463.7369037188
 10
1264.8584005907
 20
-460.1051835319
 10
1268.2168335264
 20
-456.7547758246
 10
1271.7718609304
 20
-453.6920582885
 10
1275.5167156061
 20
-450.9228609805
 10
1279.4442690097
 20
-448.4524552249
 10
1283.5470448201
 20
-446.2855435796
 10
1287.8172331703
 20
-444.4262508841
 10
1292.2467055141
 20
-442.8781164077
 10
1296.8270300992
 20
-441.6440871123
 10
1301.5494880173
 20
-440.7265120428
 10
1306.4050898015
 20
-440.1271378556
 10
1311.3845925377
 20
-439.8471054934
 10
1316.4785174595
 20
-439.8869480139
 10
1321.6771679912
 20
-440.2465895744
 10
1326.9706482062
 20
-440.9253455768
 10
1332.3488816639
 20
-441.9219239706
 10
1337.8016305913
 20
-443.234427712
 10
1343.3185153709
 20
-444.8603583757
 10
1348.889034299
 20
-446.7966209101
 10
1354.5025835761
 20
-449.0395295296
 10
1360.1484774922
 20
-451.58481473
 10
1365.8159687673
 20
-454.4276314164
 10
1371.4942690097
 20
-457.5625681255
 10
1377.172569252
 20
-460.9836573273
 10
1382.8400605271
 20
-464.6843867838
 10
1388.4859544432
 20
-468.6577119464
 10
1394.0995037204
 20
-472.8960693647
 10
1399.6700226484
 20
-477.3913910845
 10
1405.1869074281
 20
-482.1351200053
 10
1410.6396563555
 20
-487.1182261697
 10
1416.0178898132
 20
-492.3312239516
 10
1421.3113700282
 20
-497.7641901137
 10
1426.5100205599
 20
-503.406782696
 10
1431.6039454817
 20
-509.2482607029
 10
1436.5834482179
 20
-515.2775045489
 10
1441.4390500021
 20
-521.4830372256
 10
1446.1615079202
 20
-527.8530461491
 10
1450.7418325053
 20
-534.3754056451
 10
1455.1713048491
 20
-541.0377000318
 10
1459.4414931993
 20
-547.827247253
 10
1463.5442690097
 20
-554.7311230199
 10
1467.4718224133
 20
-561.7361854123
 10
1471.216677089
 20
-568.829099896
 10
1474.771704493
 20
-575.9963647051
 10
1478.1301374287
 20
-583.2243365436
 10
1481.2855829281
 20
-590.4992565564
 10
1484.2320344213
 20
-597.8072765197
 10
1486.9638831704
 20
-605.1344852022
 10
1489.4759289462
 20
-612.4669348457
 10
1491.7633899266
 20
-619.7906677155
 10
1493.8219117996
 20
-627.0917426699
 10
1495.647576052
 20
-634.3562616977
 10
1497.2369074281
 20
-641.5703963741
 10
1498.5868805451
 20
-648.7204141837
 10
1499.6949256526
 20
-655.7927046612
 10
1500.5589335238
 20
-662.7738052998
 10
1501.1772594704
 20
-669.6504271775
 10
1501.5487264741
 20
-676.4094802538
 10
1501.6726274261
 20
-683.038098287
 10
1501.5487264741
 20
-689.5236633259
 10
1501.1772594704
 20
-695.8538297289
 10
1500.5589335238
 20
-702.0165476645
 10
1499.6949256526
 20
-708.0000860487
 10
1498.5868805451
 20
-713.7930548762
 10
1497.2369074281
 20
-719.3844269015
 10
1495.647576052
 20
-724.7635586303
 10
1493.8219117996
 20
-729.9202105796
 10
1491.7633899266
 20
-734.8445667692
 10
1489.4759289462
 20
-739.5272534073
 10
1486.9638831704
 20
-743.9593567337
 10
1484.2320344213
 20
-748.1324399879
 10
1481.2855829281
 20
-752.0385594686
 10
1478.1301374287
 20
-755.6702796555
 10
1474.771704493
 20
-759.0206873628
 10
1471.216677089
 20
-762.0834048989
 10
1467.4718224133
 20
-764.8526022069
 10
1463.5442690097
 20
-767.3230079625
 10
1459.4414931993
 20
-769.4899196078
 10
1455.1713048491
 20
-771.3492123033
 10
1450.7418325053
 20
-772.8973467797
 10
1446.1615079202
 20
-774.1313760751
 10
1441.4390500021
 20
-775.0489511446
 10
1436.5834482179
 20
-775.6483253318
 10
1431.6039454817
 20
-775.928357694
 10
1426.5100205599
 20
-775.8885151735
 10
1421.3113700281
 20
-775.528873613
 10
1416.0178898132
 20
-774.8501176106
 10
1410.6396563555
 20
-773.8535392168
 10
1405.186907428
 20
-772.5410354754
 10
1399.6700226484
 20
-770.9151048117
 10
1394.0995037204
 20
-768.9788422773
 10
1388.4859544432
 20
-766.7359336578
 10
1382.8400605271
 20
-764.1906484574
 10
1377.172569252
 20
-761.347831771
 10
1371.4942690097
 20
-758.2128950619
 10
1365.8159687673
 20
-754.7918058601
 10
1360.1484774922
 20
-751.0910764035
 10
1354.5025835761
 20
-747.117751241
 10
1348.889034299
 20
-742.8793938227
 10
1343.3185153709
 20
-738.3840721029
 10
1337.8016305913
 20
-733.6403431821
 10
1332.3488816639
 20
-728.6572370177
 10
1326.9706482062
 20
-723.4442392358
 10
1321.6771679912
 20
-718.0112730737
 10
1316.4785174595
 20
-712.3686804914
 10
1311.3845925377
 20
-706.5272024845
 10
1306.4050898015
 20
-700.4979586385
 10
1301.5494880173
 20
-694.2924259618
 10
1296.8270300992
 20
-687.9224170383
 10
1292.2467055141
 20
-681.4000575423
 10
1287.8172331703
 20
-674.7377631556
 10
1283.5470448201
 20
-667.9482159343
 10
1279.4442690097
 20
-661.0443401675
 10
1275.5167156061
 20
-654.0392777751
 10
1271.7718609304
 20
-646.9463632914
 10
1268.2168335264
 20
-639.7790984823
 10
1264.8584005907
 20
-632.5511266438
 10
1261.7029550913
 20
-625.276206631
 10
1258.7565035981
 20
-617.9681866677
 10
1256.0246548489
 20
-610.6409779852
 10
1253.5126090732
 20
-603.3085283417
 10
1251.2251480928
 20
-595.9847954719
 10
1249.1666262197
 20
-588.6837205175
 10
1247.3409619674
 20
-581.4192014897
 10
1245.7516305913
 20
-574.2050668133
 10
1244.4016574743
 20
-567.0550490037
 10
1243.2936123668
 20
-559.9827585262
 10
1242.4296044956
 20
-553.0016578876
 10
1241.8112785489
 20
-546.1250360099
 10
1241.4398115453
 20
-539.3659829336
 10
1241.3159105932
 20
-532.7373649004
  0
LWPOLYLINE
  5
E6
330
1F
100
AcDbEntity
  8
0
  6
Continuous
 62
     7
370
    25
100
AcDbPolyline
 90
      160
 70
   128
 43
0.0
 10
843.2855034633
 20
-1155.3586400037
 10
849.6951729038
 20
-1151.8018230869
 10
856.3432486489
 20
-1148.3939662072
 10
863.2193505175
 20
-1145.1403903287
 10
870.3127422927
 20
-1142.0461755237
 10
877.6123484854
 20
-1139.1161530415
 10
885.106771627
 20
-1136.3548977643
 10
892.7843100653
 20
-1133.7667210644
 10
900.6329762355
 20
-1131.3556640726
 10
908.6405153772
 20
-1129.1254913681
 10
916.7944246683
 20
-1127.0796851009
 10
925.0819727476
 20
-1125.2214395545
 10
933.4902195924
 20
-1123.5536561589
 10
942.0060367235
 20
-1122.0789389598
 10
950.6161277033
 20
-1120.7995905531
 10
959.3070488968
 20
-1119.7176084894
 10
968.0652304623
 20
-1118.8346821553
 10
976.8769975388
 20
-1118.1521901355
 10
985.7285915981
 20
-1117.6711980601
 10
994.6061919269
 20
-1117.3924569414
 10
1003.495937206
 20
-1117.3164020004
 10
1012.3839471535
 20
-1117.4431519878
 10
1021.2563441969
 20
-1117.7725089987
 10
1030.0992751415
 20
-1118.3039587811
 10
1038.8989328002
 20
-1119.0366715393
 10
1047.6415775523
 20
-1119.9695032294
 10
1056.3135587958
 20
-1121.1009973452
 10
1064.9013362614
 20
-1122.4293871932
 10
1073.391501154
 20
-1123.9525986503
 10
1081.7707970889
 20
-1125.6682534025
 10
1090.0261407904
 20
-1127.5736726587
 10
1098.144642519
 20
-1129.6658813329
 10
1106.1136261982
 20
-1131.9416126895
 10
1113.9206492058
 20
-1134.3973134442
 10
1121.5535218023
 20
-1137.0291493118
 10
1129.000326163
 20
-1139.8330109931
 10
1136.249434987
 20
-1142.8045205907
 10
1143.2895296514
 20
-1145.9390384453
 10
1150.1096178841
 20
-1149.2316703793
 10
1156.6990509269
 20
-1152.6772753387
 10
1163.0475401623
 20
-1156.2704734205
 10
1169.1451731779
 20
-1160.0056542724
 10
1174.9824292437
 20
-1163.8769858529
 10
1180.5501941773
 20
-1167.8784235372
 10
1185.8397745745
 20
-1172.0037195555
 10
1190.8429113836
 20
-1176.2464327477
 10
1195.5517928004
 20
-1180.5999386207
 10
1199.9590664654
 20
-1185.057439692
 10
1204.057850944
 20
-1189.6119761028
 10
1207.8417464708
 20
-1194.2564364851
 10
1211.3048449422
 20
-1198.9835690654
 10
1214.4417391409
 20
-1203.7859929873
 10
1217.247531179
 20
-1208.6562098359
 10
1219.7178401454
 20
-1213.5866153457
 10
1221.8488089457
 20
-1218.5695112739
 10
1223.6371103253
 20
-1223.5971174198
 10
1225.0799520638
 20
-1228.6615837734
 10
1226.175081335
 20
-1233.7550027716
 10
1226.9207882247
 20
-1238.8694216453
 10
1227.3159084
 20
-1243.9968548365
 10
1227.3598249277
 20
-1249.129296467
 10
1227.0524692373
 20
-1254.2587328383
 10
1226.3943212284
 20
-1259.3771549446
 10
1225.3864085207
 20
-1264.4765709773
 10
1224.0303048505
 20
-1269.5490188035
 10
1222.3281276126
 20
-1274.5865783983
 10
1220.2825345547
 20
-1279.5813842101
 10
1217.8967196275
 20
-1284.5256374427
 10
1215.1744079978
 20
-1289.4116182316
 10
1212.1198502322
 20
-1294.2316976978
 10
1208.7378156598
 20
-1298.9783498593
 10
1205.0335849263
 20
-1303.6441633823
 10
1201.0129417483
 20
-1308.2218531528
 10
1196.6821638827
 20
-1312.7042716517
 10
1192.0480133251
 20
-1317.0844201145
 10
1187.1177257515
 20
-1321.3554594594
 10
1181.8989992207
 20
-1325.5107209655
 10
1176.3999821546
 20
-1329.5437166851
 10
1170.6292606157
 20
-1333.4481495743
 10
1164.5958449006
 20
-1337.2179233245
 10
1158.3091554717
 20
-1340.8471518815
 10
1151.7790082483
 20
-1344.3301686357
 10
1145.0155992801
 20
-1347.66153527
 10
1138.0294888273
 20
-1350.8360502508
 10
1130.8315848722
 20
-1353.8487569497
 10
1123.4331260872
 20
-1356.694951383
 10
1115.8456642876
 20
-1359.3701895559
 10
1108.0810463943
 20
-1361.8702944015
 10
1100.1513959363
 20
-1364.1913623028
 10
1092.0690941216
 20
-1366.329769188
 10
1083.846760505
 20
-1368.2821761885
 10
1075.4972332845
 20
-1370.0455348524
 10
1067.0335492555
 20
-1371.6170919047
 10
1058.4689234561
 20
-1372.9943935455
 10
1049.8167285327
 20
-1374.1752892817
 10
1041.0904738607
 20
-1375.157935285
 10
1032.3037844507
 20
-1375.9407972701
 10
1023.4703796754
 20
-1376.5226528911
 10
1014.6040518477
 20
-1376.9025936494
 10
1005.7186446859
 20
-1377.0800263127
 10
996.8280316986
 20
-1377.0546738409
 10
987.9460945227
 20
-1376.8265758189
 10
979.0867012485
 20
-1376.3960883947
 10
970.2636847672
 20
-1375.7638837232
 10
961.4908211715
 20
-1374.9309489171
 10
952.7818082466
 20
-1373.8985845052
 10
944.1502440822
 20
-1372.6684024019
 10
935.6096058414
 20
-1371.2423233906
 10
927.1732287167
 20
-1369.6225741243
 10
918.8542851097
 20
-1367.8116836493
 10
910.6657640632
 20
-1365.812479456
 10
902.6204509808
 20
-1363.6280830646
 10
894.730907664
 20
-1361.2619051506
 10
887.0094526979
 20
-1358.71764022
 10
879.4681422181
 20
-1355.9992608404
 10
872.1187510854
 20
-1353.1110114386
 10
864.9727545019
 20
-1350.0574016732
 10
858.0413100929
 20
-1346.8431993933
 10
851.3352404859
 20
-1343.4734231942
 10
844.8650164128
 20
-1339.9533345815
 10
838.6407403601
 20
-1336.2884297556
 10
832.6721307963
 20
-1332.4844310304
 10
826.9685069965
 20
-1328.5472778983
 10
821.5387744923
 20
-1324.4831177566
 10
816.3914111665
 20
-1320.2982963089
 10
811.5344540158
 20
-1315.9993476572
 10
806.9754866023
 20
-1311.5929840993
 10
802.7216272124
 20
-1307.0860856491
 10
798.7795177425
 20
-1302.4856892933
 10
795.1553133288
 20
-1297.7989780048
 10
791.8546727361
 20
-1293.0332695269
 10
788.8827495229
 20
-1288.1960049477
 10
786.2441839945
 20
-1283.2947370816
 10
783.9430959579
 20
-1278.3371186766
 10
781.9830782887
 20
-1273.3308904653
 10
780.3671913219
 20
-1268.2838690788
 10
779.0979580732
 20
-1263.2039348419
 10
778.1773602997
 20
-1258.0990194687
 10
777.6068354055
 20
-1252.9770936788
 10
777.3872741975
 20
-1247.8461547513
 10
777.5190194944
 20
-1242.7142140381
 10
778.0018655916
 20
-1237.5892844555
 10
778.8350585823
 20
-1232.4793679726
 10
780.0172975345
 20
-1227.3924431176
 10
781.5467365224
 20
-1222.3364525197
 10
783.4209875085
 20
-1217.3192905079
 10
785.6371240726
 20
-1212.3487907854
 10
788.1916859803
 20
-1207.4327141972
 10
791.0806845866
 20
-1202.5787366135
 10
794.2996090629
 20
-1197.794436944
 10
797.843433441
 20
-1193.0872853048
 10
801.7066244596
 20
-1188.4646313543
 10
805.8831502047
 20
-1183.9336928179
 10
810.3664895269
 20
-1179.5015442184
 10
815.1496422243
 20
-1175.1751058296
 10
820.2251399716
 20
-1170.9611328715
 10
825.5850579816
 20
-1166.8662049627
 10
831.2210273786
 20
-1162.8967158469
 10
837.1242482654
 20
-1159.0588634103
 10
843.2855034633
 20
-1155.3586400037
  0
LWPOLYLINE
  5
E7
330
1F
100
AcDbEntity
  8
0
  6
Continuous
 62
     7
370
    25
100
AcDbPolyline
 90
      145
 70
   128
 43
0.0
 10
872.2061708139
 20
-1172.0541858905
 10
866.6517715236
 20
-1175.4037253431
 10
861.3557472521
 20
-1178.8899417512
 10
856.3281792827
 20
-1182.5061989038
 10
851.5786378767
 20
-1186.2456130498
 10
847.1161640562
 20
-1190.1010660019
 10
842.9492523936
 20
-1194.0652186863
 10
839.0858348422
 20
-1198.130525113
 10
835.5332656369
 20
-1202.2892467402
 10
832.298307295
 20
-1206.5334672048
 10
829.3871177436
 20
-1210.8551073921
 10
826.8052385976
 20
-1215.2459408143
 10
824.5575846105
 20
-1219.6976092703
 10
822.6484343195
 20
-1224.2016387564
 10
821.0814219008
 20
-1228.7494555963
 10
819.8595302514
 20
-1233.3324027623
 10
818.9850853116
 20
-1237.9417563539
 10
818.4597516371
 20
-1242.5687422046
 10
818.2845292303
 20
-1247.2045525838
 10
818.4597516371
 20
-1251.840362963
 10
818.9850853116
 20
-1256.4673488137
 10
819.8595302514
 20
-1261.0767024053
 10
821.0814219008
 20
-1265.6596495712
 10
822.6484343195
 20
-1270.2074664112
 10
824.5575846105
 20
-1274.7114958972
 10
826.8052385976
 20
-1279.1631643533
 10
829.3871177436
 20
-1283.5539977755
 10
832.298307295
 20
-1287.8756379627
 10
835.5332656369
 20
-1292.1198584274
 10
839.0858348422
 20
-1296.2785800546
 10
842.9492523936
 20
-1300.3438864813
 10
847.1161640562
 20
-1304.3080391656
 10
851.5786378767
 20
-1308.1634921178
 10
856.3281792827
 20
-1311.9029062638
 10
861.3557472521
 20
-1315.5191634164
 10
866.6517715236
 20
-1319.0053798245
 10
872.2061708139
 20
-1322.3549192771
 10
878.0083720083
 20
-1325.5614057354
 10
884.047330287
 20
-1328.6187354702
 10
890.3115501498
 20
-1331.5210886806
 10
896.7891072981
 20
-1334.2629405723
 10
903.4676713337
 20
-1336.8390718744
 10
910.3345292303
 20
-1339.2445787746
 10
917.3766095337
 20
-1341.4748822537
 10
924.5805072439
 20
-1343.5257368022
 10
931.9325093319
 20
-1345.3932385021
 10
939.4186208441
 20
-1347.0738324577
 10
947.0245915416
 20
-1348.5643195628
 10
954.7359430269
 20
-1349.8618625905
 10
962.5379963043
 20
-1350.963991594
 10
970.4158997218
 20
-1351.8686086081
 10
978.3546572426
 20
-1352.5739916427
 10
986.3391569905
 20
-1353.0787979614
 10
994.3542000164
 20
-1353.3820666364
 10
1002.3845292303
 20
-1353.4832203787
 10
1010.4148584443
 20
-1353.3820666364
 10
1018.4299014702
 20
-1353.0787979614
 10
1026.414401218
 20
-1352.5739916427
 10
1034.3531587388
 20
-1351.8686086081
 10
1042.2310621563
 20
-1350.963991594
 10
1050.0331154337
 20
-1349.8618625905
 10
1057.7444669191
 20
-1348.5643195628
 10
1065.3504376166
 20
-1347.0738324577
 10
1072.8365491287
 20
-1345.3932385021
 10
1080.1885512168
 20
-1343.5257368022
 10
1087.3924489269
 20
-1341.4748822537
 10
1094.4345292303
 20
-1339.2445787746
 10
1101.301387127
 20
-1336.8390718744
 10
1107.9799511625
 20
-1334.2629405723
 10
1114.4575083108
 20
-1331.5210886806
 10
1120.7217281736
 20
-1328.6187354702
 10
1126.7606864524
 20
-1325.5614057354
 10
1132.5628876468
 20
-1322.3549192771
 10
1138.1172869371
 20
-1319.0053798245
 10
1143.4133112085
 20
-1315.5191634164
 10
1148.4408791779
 20
-1311.9029062638
 10
1153.1904205839
 20
-1308.1634921177
 10
1157.6528944045
 20
-1304.3080391656
 10
1161.819806067
 20
-1300.3438864813
 10
1165.6832236184
 20
-1296.2785800546
 10
1169.2357928238
 20
-1292.1198584274
 10
1172.4707511656
 20
-1287.8756379627
 10
1175.381940717
 20
-1283.5539977755
 10
1177.9638198631
 20
-1279.1631643533
 10
1180.2114738501
 20
-1274.7114958972
 10
1182.1206241411
 20
-1270.2074664112
 10
1183.6876365599
 20
-1265.6596495712
 10
1184.9095282092
 20
-1261.0767024053
 10
1185.783973149
 20
-1256.4673488137
 10
1186.3093068235
 20
-1251.840362963
 10
1186.4845292303
 20
-1247.2045525838
 10
1186.3093068235
 20
-1242.5687422046
 10
1185.783973149
 20
-1237.9417563539
 10
1184.9095282092
 20
-1233.3324027623
 10
1183.6876365599
 20
-1228.7494555963
 10
1182.1206241411
 20
-1224.2016387564
 10
1180.2114738501
 20
-1219.6976092703
 10
1177.9638198631
 20
-1215.2459408143
 10
1175.381940717
 20
-1210.8551073921
 10
1172.4707511656
 20
-1206.5334672048
 10
1169.2357928238
 20
-1202.2892467402
 10
1165.6832236184
 20
-1198.130525113
 10
1161.819806067
 20
-1194.0652186863
 10
1157.6528944045
 20
-1190.1010660019
 10
1153.1904205839
 20
-1186.2456130498
 10
1148.4408791779
 20
-1182.5061989038
 10
1143.4133112085
 20
-1178.8899417512
 10
1138.1172869371
 20
-1175.4037253431
 10
1132.5628876468
 20
-1172.0541858905
 10
1126.7606864524
 20
-1168.8476994322
 10
1120.7217281736
 20
-1165.7903696974
 10
1114.4575083108
 20
-1162.888016487
 10
1107.9799511625
 20
-1160.1461645952
 10
1101.301387127
 20
-1157.5700332931
 10
1094.4345292303
 20
-1155.164526393
 10
1087.3924489269
 20
-1152.9342229139
 10
1080.1885512168
 20
-1150.8833683653
 10
1072.8365491287
 20
-1149.0158666655
 10
1065.3504376166
 20
-1147.3352727099
 10
1057.7444669191
 20
-1145.8447856048
 10
1050.0331154337
 20
-1144.547242577
 10
1042.2310621563
 20
-1143.4451135736
 10
1034.3531587388
 20
-1142.5404965595
 10
1026.414401218
 20
-1141.8351135248
 10
1018.4299014702
 20
-1141.3303072062
 10
1010.4148584443
 20
-1141.0270385312
 10
1002.3845292303
 20
-1140.9258847888
 10
994.3542000164
 20
-1141.0270385312
 10
986.3391569905
 20
-1141.3303072062
 10
978.3546572426
 20
-1141.8351135248
 10
970.4158997218
 20
-1142.5404965595
 10
962.5379963043
 20
-1143.4451135736
 10
954.7359430269
 20
-1144.547242577
 10
947.0245915416
 20
-1145.8447856048
 10
939.4186208441
 20
-1147.3352727099
 10
931.9325093319
 20
-1149.0158666655
 10
924.5805072439
 20
-1150.8833683653
 10
917.3766095337
 20
-1152.9342229139
 10
910.3345292303
 20
-1155.164526393
 10
903.4676713337
 20
-1157.5700332931
 10
896.7891072981
 20
-1160.1461645952
 10
890.3115501498
 20
-1162.888016487
 10
884.047330287
 20
-1165.7903696974
 10
878.0083720083
 20
-1168.8476994322
 10
872.2061708139
 20
-1172.0541858905
  0
LWPOLYLINE
  5
E8
330
1F
100
AcDbEntity
  8
0
  6
Continuous
 62
     1
370
    25
100
AcDbPolyline
 90
       21
 70
   128
 43
0.0
 10
1161.4835549973
 20
-912.8460188737
 10
1167.7690173165
 20
-916.3311092361
 10
1174.0446656325
 20
-919.5238984453
 10
1180.3007012652
 20
-922.4194013397
 10
1186.5273561579
 20
-925.0130969355
 10
1192.7149081278
 20
-927.3009354848
 10
1198.8536960473
 20
-929.2793447993
 10
1204.9341349276
 20
-930.9452358276
 10
1210.9467308852
 20
-932.2960074788
 10
1216.8820959654
 20
-933.3295506832
 10
1222.7309628
 20
-934.0442516858
 10
1228.4841990778
 20
-934.4389945659
 10
1234.1328218033
 20
-934.5131629792
 10
1239.6680113228
 20
-934.2666411206
 10
1245.0811250947
 20
-933.6998139048
 10
1250.3637111845
 20
-932.813566365
 10
1255.5075214612
 20
-931.6092822718
 10
1260.5045244755
 20
-930.0888419716
 10
1265.3469180005
 20
-928.2546194517
 10
1270.0271412135
 20
-926.1094786326
 10
1273.9744124188
 20
-923.985330235
  0
LWPOLYLINE
  5
E9
330
1F
100
AcDbEntity
  8
0
  6
Continuous
 62
     1
370
    25
100
AcDbPolyline
 90
       61
 70
   128
 43
0.0
 10
1048.9926975757
 20
-534.2633421637
 10
1046.2396166466
 20
-535.932418559
 10
1041.9962081463
 20
-538.8391526828
 10
1037.939364954
 20
-542.0429945324
 10
1034.075421349
 20
-545.5389416892
 10
1030.4104104204
 20
-549.3215356466
 10
1026.9500546477
 20
-553.3848703331
 10
1023.6997569657
 20
-557.7226013341
 10
1020.6645923285
 20
-562.3279557975
 10
1017.8492997852
 20
-567.193743009
 10
1015.258275081
 20
-572.3123656194
 10
1012.8955637935
 20
-577.6758315071
 10
1010.7648550157
 20
-583.275766257
 10
1008.8694755966
 20
-589.1034262355
 10
1007.2123849461
 20
-595.1497122434
 10
1005.7961704145
 20
-601.4051837229
 10
1004.6230432527
 20
-607.8600734979
 10
1003.6948351596
 20
-614.5043030241
 10
1003.0129954219
 20
-621.3274981259
 10
1002.5785886513
 20
-628.319005194
 10
1002.3922931225
 20
-635.4679078203
 10
1002.4543997139
 20
-642.7630438417
 10
1002.7648114534
 20
-650.1930227695
 10
1003.3230436698
 20
-657.7462435735
 10
1004.1282247499
 20
-665.410912796
 10
1005.179097499
 20
-673.175062966
 10
1006.4740211041
 20
-681.0265712845
 10
1008.0109736955
 20
-688.9531785534
 10
1009.7875555044
 20
-696.9425083163
 10
1011.8009926091
 20
-704.9820861833
 10
1014.0481412665
 20
-713.0593593078
 10
1016.5254928209
 20
-721.1617159867
 10
1019.2291791818
 20
-729.2765053518
 10
1022.1549788639
 20
-737.3910571229
 10
1025.2983235783
 20
-745.4927013906
 10
1028.6543053655
 20
-753.568788399
 10
1032.2176842581
 20
-761.6067082971
 10
1035.9828964632
 20
-769.5939108271
 10
1039.9440630487
 20
-777.5179249203
 10
1044.0949991233
 20
-785.3663781693
 10
1048.429223493
 20
-793.1270161462
 10
1052.9399687811
 20
-800.7877215359
 10
1057.620191994
 20
-808.3365330563
 10
1062.462585519
 20
-815.7616641345
 10
1067.4595885334
 20
-823.0515213095
 10
1072.6033988101
 20
-830.1947223348
 10
1077.8859848999
 20
-837.1801139499
 10
1083.2990986718
 20
-843.9967892951
 10
1088.8342881912
 20
-850.6341049409
 10
1094.4829109168
 20
-857.0816975069
 10
1100.2361471946
 20
-863.3294998427
 10
1106.0850140292
 20
-869.3677567466
 10
1112.0203791093
 20
-875.1870401971
 10
1118.032975067
 20
-880.7782640741
 10
1124.1134139473
 20
-886.1326983451
 10
1130.2522018667
 20
-891.2419826966
 10
1136.4397538367
 20
-896.0981395877
 10
1142.6664087293
 20
-900.6935867057
 10
1148.9224443621
 20
-905.0211488056
 10
1155.1980926781
 20
-909.0740689128
 10
1161.4835549973
 20
-912.8460188737
  0
LWPOLYLINE
  5
EA
330
1F
100
AcDbEntity
  8
0
  6
Continuous
 62
     1
370
    25
100
AcDbPolyline
 90
       21
 70
   128
 43
0.0
 10
1161.4835549973
 20
-912.8460188737
 10
1167.6448101952
 20
-916.5462422802
 10
1173.5480310821
 20
-920.3840947168
 10
1179.184000479
 20
-924.3535838326
 10
1184.543918489
 20
-928.4485117415
 10
1189.6194162363
 20
-932.6624846996
 10
1194.4025689337
 20
-936.9889230884
 10
1198.885908256
 20
-941.4210716879
 10
1203.062434001
 20
-945.9520102242
 10
1206.9256250196
 20
-950.5746641747
 10
1210.4694493977
 20
-955.281815814
 10
1213.6883738741
 20
-960.0661154834
 10
1216.5773724803
 20
-964.9200930671
 10
1219.131934388
 20
-969.8361696553
 10
1221.3480709521
 20
-974.8066693779
 10
1223.2223219383
 20
-979.8238313896
 10
1224.7517609262
 20
-984.8798219875
 10
1225.9339998783
 20
-989.9667468426
 10
1226.767192869
 20
-995.0766633254
 10
1227.2500389662
 20
-1000.201592908
 10
1227.3845292303
 20
-1004.6919314537
  0
LWPOLYLINE
  5
EB
330
1F
100
AcDbEntity
  8
0
  6
Continuous
 62
     1
370
    25
100
AcDbPolyline
 90
       61
 70
   128
 43
0.0
 10
777.3845292303
 20
-1004.6919314537
 10
777.4531500606
 20
-1001.4842337064
 10
777.8482702359
 20
-996.3568005152
 10
778.5939771256
 20
-991.2423816416
 10
779.6891063969
 20
-986.1489626433
 10
781.1319481353
 20
-981.0844962897
 10
782.9202495149
 20
-976.0568901438
 10
785.0512183153
 20
-971.0739942157
 10
787.5215272816
 20
-966.1435887058
 10
790.3273193198
 20
-961.2733718572
 10
793.4642135185
 20
-956.4709479354
 10
796.9273119898
 20
-951.7438153551
 10
800.7112075166
 20
-947.0993549728
 10
804.8099919952
 20
-942.544818562
 10
809.2172656603
 20
-938.0873174906
 10
813.926147077
 20
-933.7338116176
 10
818.9292838861
 20
-929.4910984254
 10
824.2188642834
 20
-925.3658024071
 10
829.7866292169
 20
-921.3643647228
 10
835.6238852827
 20
-917.4930331423
 10
841.7215182984
 20
-913.7578522904
 10
848.0700075338
 20
-910.1646542086
 10
854.6594405765
 20
-906.7190492492
 10
861.4795288092
 20
-903.4264173152
 10
868.5196234736
 20
-900.2918994606
 10
875.7687322976
 20
-897.320389863
 10
883.2155366584
 20
-894.5165281818
 10
890.8484092548
 20
-891.8846923141
 10
898.6554322624
 20
-889.4289915594
 10
906.6244159416
 20
-887.1532602028
 10
914.7429176703
 20
-885.0610515287
 10
922.9982613717
 20
-883.1556322725
 10
931.3775573067
 20
-881.4399775202
 10
939.8677221992
 20
-879.9167660632
 10
948.4554996648
 20
-878.5883762152
 10
957.1274809083
 20
-877.4568820993
 10
965.8701256604
 20
-876.5240504093
 10
974.6697833192
 20
-875.791337651
 10
983.5127142637
 20
-875.2598878686
 10
992.3851113071
 20
-874.9305308577
 10
1001.2731212546
 20
-874.8037808703
 10
1010.1628665338
 20
-874.8798358113
 10
1019.0404668625
 20
-875.1585769301
 10
1027.8920609218
 20
-875.6395690054
 10
1036.7038279984
 20
-876.3220610252
 10
1045.4620095638
 20
-877.2049873593
 10
1054.1529307573
 20
-878.286969423
 10
1062.7630217371
 20
-879.5663178297
 10
1071.2788388682
 20
-881.0410350288
 10
1079.6870857131
 20
-882.7088184244
 10
1087.9746337923
 20
-884.5670639708
 10
1096.1285430835
 20
-886.612870238
 10
1104.1360822251
 20
-888.8430429425
 10
1111.9847483953
 20
-891.2540999344
 10
1119.6622868337
 20
-893.8422766342
 10
1127.1567099752
 20
-896.6035319114
 10
1134.4563161679
 20
-899.5335543936
 10
1141.5497079431
 20
-902.6277691986
 10
1148.4258098117
 20
-905.8813450772
 10
1155.0738855568
 20
-909.2892019569
 10
1161.4835549973
 20
-912.8460188737
  0
ENDSEC
  0
SECTION
  2
OBJECTS
  0
DICTIONARY
  5
C
330
0
100
AcDbDictionary
281
     1
  3
ACAD_GROUP
350
D
  3
ACAD_LAYOUT
350
1A
  3
ACAD_MLINESTYLE
350
17
  3
ACAD_PLOTSETTINGS
350
19
  3
ACAD_PLOTSTYLENAME
350
E
  3
ACAD_SCALELIST
350
47
  3
DWGPROPS
350
EC
  0
DICTIONARY
  5
D
102
{ACAD_REACTORS
330
C
102
}
330
C
100
AcDbDictionary
281
     1
  0
DICTIONARY
  5
1A
102
{ACAD_REACTORS
330
C
102
}
330
C
100
AcDbDictionary
281
     1
  3
Layout1
350
1E
  3
Layout2
350
26
  3
Model
350
22
  0
DICTIONARY
  5
17
102
{ACAD_REACTORS
330
C
102
}
330
C
100
AcDbDictionary
281
     1
  3
Standard
350
18
  0
DICTIONARY
  5
19
102
{ACAD_REACTORS
330
C
102
}
330
C
100
AcDbDictionary
281
     1
  0
ACDBDICTIONARYWDFLT
  5
E
102
{ACAD_REACTORS
330
C
102
}
330
C
100
AcDbDictionary
281
     1
  3
Normal
350
F
100
AcDbDictionaryWithDefault
340
F
  0
DICTIONARY
  5
47
102
{ACAD_REACTORS
330
C
102
}
330
C
100
AcDbDictionary
281
     1
  3
A0
350
48
  3
A1
350
49
  3
A2
350
4A
  3
A3
350
4B
  3
A4
350
4C
  3
A5
350
4D
  3
A6
350
4E
  3
A7
350
4F
  3
A8
350
50
  3
A9
350
51
  3
B0
350
52
  3
B1
350
53
  3
B2
350
54
  3
B3
350
55
  3
B4
350
56
  3
B5
350
57
  3
B6
350
58
  3
B7
350
59
  3
B8
350
5A
  3
B9
350
5B
  3
C0
350
5C
  3
C1
350
5D
  3
C2
350
5E
  3
C3
350
5F
  3
C4
350
60
  3
C5
350
61
  3
C6
350
62
  3
C7
350
63
  3
C8
350
64
  3
C9
350
65
  3
D0
350
66
  3
D1
350
67
  3
D2
350
68
  0
XRECORD
  5
EC
102
{ACAD_REACTORS
330
C
102
}
330
C
100
AcDbXrecord
280
     1
  1
DWGPROPS COOKIE
  2

  3

  4

  6

  7

  8
b.kav
  9

300
=
301
=
302
=
303
=
304
=
305
=
306
=
307
=
308
=
309
=
 40
0.0
 41
2459935.574470058
 42
2459935.574470231
  1

 90
        0
  0
LAYOUT
  5
1E
102
{ACAD_REACTORS
330
1A
102
}
330
1A
100
AcDbPlotSettings
  1

  2
none_device
  4

  6

 40
0.0
 41
0.0
 42
0.0
 43
0.0
 44
0.0
 45
0.0
 46
0.0
 47
0.0
 48
0.0
 49
0.0
140
0.0
141
0.0
142
1.0
143
1.0
 70
   688
 72
     1
 73
     0
 74
     5
  7

 75
    16
147
1.0
148
0.0
149
0.0
100
AcDbLayout
  1
Layout1
 70
     1
 71
     1
 10
0.0
 20
0.0
 11
420.0
 21
297.0
 12
0.0
 22
0.0
 32
0.0
 14
1.0000000000E+20
 24
1.0000000000E+20
 34
1.0000000000E+20
 15
-1.0000000000E+20
 25
-1.0000000000E+20
 35
-1.0000000000E+20
146
0.0
 13
0.0
 23
0.0
 33
0.0
 16
1.0
 26
0.0
 36
0.0
 17
0.0
 27
1.0
 37
0.0
 76
     0
330
1B
  0
LAYOUT
  5
26
102
{ACAD_REACTORS
330
1A
102
}
330
1A
100
AcDbPlotSettings
  1

  2
none_device
  4

  6

 40
0.0
 41
0.0
 42
0.0
 43
0.0
 44
0.0
 45
0.0
 46
0.0
 47
0.0
 48
0.0
 49
0.0
140
0.0
141
0.0
142
1.0
143
1.0
 70
   688
 72
     1
 73
     0
 74
     5
  7

 75
    16
147
1.0
148
0.0
149
0.0
100
AcDbLayout
  1
Layout2
 70
     1
 71
     2
 10
0.0
 20
0.0
 11
0.0
 21
0.0
 12
0.0
 22
0.0
 32
0.0
 14
0.0
 24
0.0
 34
0.0
 15
0.0
 25
0.0
 35
0.0
146
0.0
 13
0.0
 23
0.0
 33
0.0
 16
1.0
 26
0.0
 36
0.0
 17
0.0
 27
1.0
 37
0.0
 76
     0
330
23
  0
LAYOUT
  5
22
102
{ACAD_REACTORS
330
1A
102
}
330
1A
100
AcDbPlotSettings
  1

  2
none_device
  4
Letter_(8.50_x_11.00_Inches)
  6

 40
6.35
 41
6.35
 42
6.35000508
 43
6.35000508
 44
215.9
 45
279.4
 46
0.0
 47
0.0
 48
0.0
 49
0.0
140
0.0
141
0.0
142
1.0
143
1.0
 70
  1712
 72
     1
 73
     0
 74
     0
  7

 75
     0
147
1.0
148
0.0
149
0.0
100
AcDbLayout
  1
Model
 70
     1
 71
     0
 10
0.0
 20
0.0
 11
279.4
 21
215.9
 12
0.0
 22
0.0
 32
0.0
 14
0.0
 24
0.0
 34
0.0
 15
279.4
 25
215.9
 35
0.0
146
0.0
 13
0.0
 23
0.0
 33
0.0
 16
1.0
 26
0.0
 36
0.0
 17
0.0
 27
1.0
 37
0.0
 76
     0
330
1F
331
29
  0
MLINESTYLE
  5
18
102
{ACAD_REACTORS
330
17
102
}
330
17
100
AcDbMlineStyle
  2
Standard
 70
     0
  3

 62
   256
 51
90.0
 52
90.0
 71
     2
 49
0.5
 62
   256
  6
BYLAYER
 49
-0.5
 62
   256
  6
BYLAYER
  0
ACDBPLACEHOLDER
  5
F
102
{ACAD_REACTORS
330
E
102
}
330
E
  0
SCALE
  5
48
102
{ACAD_REACTORS
330
47
102
}
330
47
100
AcDbScale
 70
     0
300
1:1
140
1.0
141
1.0
290
     1
  0
SCALE
  5
49
102
{ACAD_REACTORS
330
47
102
}
330
47
100
AcDbScale
 70
     0
300
1:2
140
1.0
141
2.0
290
     0
  0
SCALE
  5
4A
102
{ACAD_REACTORS
330
47
102
}
330
47
100
AcDbScale
 70
     0
300
1:4
140
1.0
141
4.0
290
     0
  0
SCALE
  5
4B
102
{ACAD_REACTORS
330
47
102
}
330
47
100
AcDbScale
 70
     0
300
1:5
140
1.0
141
5.0
290
     0
  0
SCALE
  5
4C
102
{ACAD_REACTORS
330
47
102
}
330
47
100
AcDbScale
 70
     0
300
1:8
140
1.0
141
8.0
290
     0
  0
SCALE
  5
4D
102
{ACAD_REACTORS
330
47
102
}
330
47
100
AcDbScale
 70
     0
300
1:10
140
1.0
141
10.0
290
     0
  0
SCALE
  5
4E
102
{ACAD_REACTORS
330
47
102
}
330
47
100
AcDbScale
 70
     0
300
1:16
140
1.0
141
16.0
290
     0
  0
SCALE
  5
4F
102
{ACAD_REACTORS
330
47
102
}
330
47
100
AcDbScale
 70
     0
300
1:20
140
1.0
141
20.0
290
     0
  0
SCALE
  5
50
102
{ACAD_REACTORS
330
47
102
}
330
47
100
AcDbScale
 70
     0
300
1:30
140
1.0
141
30.0
290
     0
  0
SCALE
  5
51
102
{ACAD_REACTORS
330
47
102
}
330
47
100
AcDbScale
 70
     0
300
1:40
140
1.0
141
40.0
290
     0
  0
SCALE
  5
52
102
{ACAD_REACTORS
330
47
102
}
330
47
100
AcDbScale
 70
     0
300
1:50
140
1.0
141
50.0
290
     0
  0
SCALE
  5
53
102
{ACAD_REACTORS
330
47
102
}
330
47
100
AcDbScale
 70
     0
300
1:100
140
1.0
141
100.0
290
     0
  0
SCALE
  5
54
102
{ACAD_REACTORS
330
47
102
}
330
47
100
AcDbScale
 70
     0
300
2:1
140
2.0
141
1.0
290
     0
  0
SCALE
  5
55
102
{ACAD_REACTORS
330
47
102
}
330
47
100
AcDbScale
 70
     0
300
4:1
140
4.0
141
1.0
290
     0
  0
SCALE
  5
56
102
{ACAD_REACTORS
330
47
102
}
330
47
100
AcDbScale
 70
     0
300
8:1
140
8.0
141
1.0
290
     0
  0
SCALE
  5
57
102
{ACAD_REACTORS
330
47
102
}
330
47
100
AcDbScale
 70
     0
300
10:1
140
10.0
141
1.0
290
     0
  0
SCALE
  5
58
102
{ACAD_REACTORS
330
47
102
}
330
47
100
AcDbScale
 70
     0
300
100:1
140
100.0
141
1.0
290
     0
  0
SCALE
  5
59
102
{ACAD_REACTORS
330
47
102
}
330
47
100
AcDbScale
 70
     0
300
1/128" = 1'-0"
140
0.0078125
141
12.0
290
     0
  0
SCALE
  5
5A
102
{ACAD_REACTORS
330
47
102
}
330
47
100
AcDbScale
 70
     0
300
1/64" = 1'-0"
140
0.015625
141
12.0
290
     0
  0
SCALE
  5
5B
102
{ACAD_REACTORS
330
47
102
}
330
47
100
AcDbScale
 70
     0
300
1/32" = 1'-0"
140
0.03125
141
12.0
290
     0
  0
SCALE
  5
5C
102
{ACAD_REACTORS
330
47
102
}
330
47
100
AcDbScale
 70
     0
300
1/16" = 1'-0"
140
0.0625
141
12.0
290
     0
  0
SCALE
  5
5D
102
{ACAD_REACTORS
330
47
102
}
330
47
100
AcDbScale
 70
     0
300
3/32" = 1'-0"
140
0.09375
141
12.0
290
     0
  0
SCALE
  5
5E
102
{ACAD_REACTORS
330
47
102
}
330
47
100
AcDbScale
 70
     0
300
1/8" = 1'-0"
140
0.125
141
12.0
290
     0
  0
SCALE
  5
5F
102
{ACAD_REACTORS
330
47
102
}
330
47
100
AcDbScale
 70
     0
300
3/16" = 1'-0"
140
0.1875
141
12.0
290
     0
  0
SCALE
  5
60
102
{ACAD_REACTORS
330
47
102
}
330
47
100
AcDbScale
 70
     0
300
1/4" = 1'-0"
140
0.25
141
12.0
290
     0
  0
SCALE
  5
61
102
{ACAD_REACTORS
330
47
102
}
330
47
100
AcDbScale
 70
     0
300
3/8" = 1'-0"
140
0.375
141
12.0
290
     0
  0
SCALE
  5
62
102
{ACAD_REACTORS
330
47
102
}
330
47
100
AcDbScale
 70
     0
300
1/2" = 1'-0"
140
0.5
141
12.0
290
     0
  0
SCALE
  5
63
102
{ACAD_REACTORS
330
47
102
}
330
47
100
AcDbScale
 70
     0
300
3/4" = 1'-0"
140
0.75
141
12.0
290
     0
  0
SCALE
  5
64
102
{ACAD_REACTORS
330
47
102
}
330
47
100
AcDbScale
 70
     0
300
1" = 1'-0"
140
1.0
141
12.0
290
     0
  0
SCALE
  5
65
102
{ACAD_REACTORS
330
47
102
}
330
47
100
AcDbScale
 70
     0
300
1-1/2" = 1'-0"
140
1.5
141
12.0
290
     0
  0
SCALE
  5
66
102
{ACAD_REACTORS
330
47
102
}
330
47
100
AcDbScale
 70
     0
300
3" = 1'-0"
140
3.0
141
12.0
290
     0
  0
SCALE
  5
67
102
{ACAD_REACTORS
330
47
102
}
330
47
100
AcDbScale
 70
     0
300
6" = 1'-0"
140
6.0
141
12.0
290
     0
  0
SCALE
  5
68
102
{ACAD_REACTORS
330
47
102
}
330
47
100
AcDbScale
 70
     0
300
1'-0" = 1'-0"
140
12.0
141
12.0
290
     0
  0
ENDSEC
  0
EOF
